999
DXF file: strap_drw.dxf
999
Pro/ENGINEER 2014440 by Parametric Technology Corporation
  0
SECTION
  2
HEADER
  9
$ACADVER
  1
AC1027
  9
$DWGCODEPAGE
  3
ANSI_1252
  9
$EXTMAX
 10
11.0
 20
8.5
 30
0.0
  9
$EXTMIN
 10
0.0
 20
0.0
 30
0.0
  9
$LIMMIN
 10
0.0
 20
0.0
  9
$LIMMAX
 10
11.0
 20
8.5
  9
$VIEWCTR
 10
5.5
 20
4.25
  9
$VIEWSIZE
 40
8.5
  9
$CLAYER
  8
0
  9
$LTSCALE
 40
0.605
  9
$CELTYPE
  6
BYLAYER
  9
$DIMSCALE
 40
1.0
  9
$DIMASZ
 40
0.15
  9
$DIMEXO
 40
0.03
  9
$DIMDLI
 40
0.418
  9
$DIMEXE
 40
0.06
  9
$DIMCEN
 40
0.099
  9
$DIMLFAC
 40
1.0
  9
$DIMBLK
  1
_FILLED
  9
$DIMALT
 70
0
  9
$DIMALTF
 40
25.4
  9
$DIMTXT
 40
0.1
  9
$DIMTOL
 70
1
  9
$DIMLIM
 70
0
  9
$DIMTFAC
 40
1.0
  9
$DIMTP
 40
0.001
  9
$DIMTM
 40
0.001
  9
$DIMGAP
 40
0.09
  9
$DIMDSEP
 70
46
  9
$AUNITS
 70
0
  9
$PDMODE
 70
3
  9
$PDSIZE
 40
0.3125
  9
$HANDSEED
  5
25C
  9
$TILEMODE
 70
1
  9
$MEASUREMENT
 70
0
  9
$INSUNITS
 70
1
  0
ENDSEC
  0
SECTION
  2
CLASSES
  0
CLASS
  1
ACDBDICTIONARYWDFLT
  2
AcDbDictionaryWithDefault
  3
AutoCAD 2000
 90
0
 91
1
280
0
281
0
  0
CLASS
  1
ACDBPLACEHOLDER
  2
AcDbPlaceHolder
  3
AutoCAD 2000
 90
0
 91
1
280
0
281
0
  0
CLASS
  1
LAYOUT
  2
AcDbLayout
  3
AutoCAD 2000
 90
0
 91
0
280
0
281
0
  0
ENDSEC
  0
SECTION
  2
TABLES
  0
TABLE
  2
VPORT
  5
8
100
AcDbSymbolTable
 70
2
  0
VPORT
  5
1F4
100
AcDbSymbolTableRecord
100
AcDbViewportTableRecord
  2
*ACTIVE
 70
0
 10
0.0
 20
0.0
 11
1.0
 21
1.0
 12
5.5
 22
4.25
 13
0.0
 23
0.0
 14
1.0
 24
1.0
 15
0.0
 25
0.0
 16
0.0
 26
0.0
 36
1.0
 17
0.0
 27
0.0
 37
0.0
 40
8.5
 41
1.2941176471
 42
50.0
 43
0.0
 44
0.0
 50
0.0
 51
0.0
 71
0
 72
100
 73
1
 74
1
 75
0
 76
0
 77
0
 78
0
  0
ENDTAB
  0
TABLE
  2
LTYPE
  5
5
100
AcDbSymbolTable
 70
6
  0
LTYPE
  5
14
100
AcDbSymbolTableRecord
100
AcDbLinetypeTableRecord
  2
BYBLOCK
 70
0
  3

 72
65
 73
0
 40
0.0
  0
LTYPE
  5
15
100
AcDbSymbolTableRecord
100
AcDbLinetypeTableRecord
  2
BYLAYER
 70
0
  3

 72
65
 73
0
 40
0.0
  0
LTYPE
  5
16
100
AcDbSymbolTableRecord
100
AcDbLinetypeTableRecord
  2
CONTINUOUS
 70
64
  3
Solid line
 72
65
 73
0
 40
0.0
  0
LTYPE
  5
1F5
100
AcDbSymbolTableRecord
100
AcDbLinetypeTableRecord
  2
CENTER
 70
64
  3
____ _ ____ _ ____ _ ____ _ ____ _ ____ _ ____
 72
65
 73
4
 40
0.6
 49
0.375
 74
0
 49
-0.075
 74
0
 49
0.075
 74
0
 49
-0.075
 74
0
  0
LTYPE
  5
1F6
100
AcDbSymbolTableRecord
100
AcDbLinetypeTableRecord
  2
HIDDEN
 70
64
  3
- - - - - - - - - - - - - - - - - - - -
 72
65
 73
2
 40
0.2
 49
0.1
 74
0
 49
-0.1
 74
0
  0
LTYPE
  5
1F7
100
AcDbSymbolTableRecord
100
AcDbLinetypeTableRecord
  2
PHANTOM
 70
64
  3
_____ _ _ _____ _ _ _____ _ _ _____
 72
65
 73
6
 40
0.8
 49
0.45
 74
0
 49
-0.05
 74
0
 49
0.1
 74
0
 49
-0.05
 74
0
 49
0.1
 74
0
 49
-0.05
 74
0
  0
LTYPE
  5
1F8
100
AcDbSymbolTableRecord
100
AcDbLinetypeTableRecord
  2
DOT
 70
64
  3
. . . . . . . . . . . . . . . . . . . .
 72
65
 73
2
 40
0.2
 49
0.1
 74
0
 49
-0.1
 74
0
  0
LTYPE
  5
1F9
100
AcDbSymbolTableRecord
100
AcDbLinetypeTableRecord
  2
DASHED
 70
64
  3
- - - - - - - - - - - - - - - - - - - -
 72
65
 73
2
 40
0.2
 49
0.1
 74
0
 49
-0.1
 74
0
  0
ENDTAB
  0
TABLE
  2
LAYER
  5
2
100
AcDbSymbolTable
 70
36
  0
LAYER
  5
10
100
AcDbSymbolTableRecord
100
AcDbLayerTableRecord
  2
0
 70
0
 62
7
  6
CONTINUOUS
370
-3
390
F
  0
LAYER
  5
1FA
100
AcDbSymbolTableRecord
100
AcDbLayerTableRecord
  2
DEFAULT_1
 70
0
 62
7
  6
CENTER
370
-3
390
F
  0
LAYER
  5
1FB
100
AcDbSymbolTableRecord
100
AcDbLayerTableRecord
  2
DEFAULT_2
 70
0
 62
8
  6
HIDDEN
370
-3
390
F
  0
LAYER
  5
1FC
100
AcDbSymbolTableRecord
100
AcDbLayerTableRecord
  2
DEFAULT_3
 70
0
 62
7
  6
PHANTOM
370
-3
390
F
  0
LAYER
  5
1FD
100
AcDbSymbolTableRecord
100
AcDbLayerTableRecord
  2
01___PRT_ALL_DTM_PLN
 70
0
 62
7
  6
CONTINUOUS
370
-3
390
F
  0
LAYER
  5
1FE
100
AcDbSymbolTableRecord
100
AcDbLayerTableRecord
  2
01___PRT_DEF_DTM_PLN
 70
0
 62
7
  6
CONTINUOUS
370
-3
390
F
  0
LAYER
  5
1FF
100
AcDbSymbolTableRecord
100
AcDbLayerTableRecord
  2
02___PRT_ALL_AXES
 70
0
 62
7
  6
CONTINUOUS
370
-3
390
F
  0
LAYER
  5
200
100
AcDbSymbolTableRecord
100
AcDbLayerTableRecord
  2
03___PRT_ALL_CURVES
 70
0
 62
7
  6
CONTINUOUS
370
-3
390
F
  0
LAYER
  5
201
100
AcDbSymbolTableRecord
100
AcDbLayerTableRecord
  2
04___PRT_ALL_DTM_PNT
 70
0
 62
7
  6
CONTINUOUS
370
-3
390
F
  0
LAYER
  5
202
100
AcDbSymbolTableRecord
100
AcDbLayerTableRecord
  2
05___PRT_ALL_DTM_CSYS
 70
0
 62
7
  6
CONTINUOUS
370
-3
390
F
  0
LAYER
  5
203
100
AcDbSymbolTableRecord
100
AcDbLayerTableRecord
  2
05___PRT_DEF_DTM_CSYS
 70
0
 62
7
  6
CONTINUOUS
370
-3
390
F
  0
LAYER
  5
204
100
AcDbSymbolTableRecord
100
AcDbLayerTableRecord
  2
06___PRT_ALL_SURFS
 70
0
 62
7
  6
CONTINUOUS
370
-3
390
F
  0
ENDTAB
  0
TABLE
  2
STYLE
  5
3
100
AcDbSymbolTable
 70
1
  0
STYLE
  5
11
100
AcDbSymbolTableRecord
100
AcDbTextStyleTableRecord
  2
STANDARD
 70
0
 40
0.0
 41
0.8
 50
0.0
 71
0
 42
0.2
  3
txt
  4

  0
STYLE
  5
205
100
AcDbSymbolTableRecord
100
AcDbTextStyleTableRecord
  2
TEXTSTYLE_1
 70
0
 40
0.0
 41
0.8
 50
0.0
 71
0
 42
0.2
  3
gdt
  4

  0
ENDTAB
  0
TABLE
  2
VIEW
  5
6
100
AcDbSymbolTable
 70
0
  0
ENDTAB
  0
TABLE
  2
UCS
  5
7
100
AcDbSymbolTable
 70
0
  0
ENDTAB
  0
TABLE
  2
APPID
  5
9
100
AcDbSymbolTable
 70
1
  0
APPID
  5
206
100
AcDbSymbolTableRecord
100
AcDbRegAppTableRecord
  2
ACAD
 70
0
  0
ENDTAB
  0
TABLE
  2
BLOCK_RECORD
  5
1
100
AcDbSymbolTable
 70
0
  0
BLOCK_RECORD
  5
207
100
AcDbSymbolTableRecord
100
AcDbBlockTableRecord
  2
*Model_Space
  0
BLOCK_RECORD
  5
208
100
AcDbSymbolTableRecord
100
AcDbBlockTableRecord
  2
*Paper_Space
  0
ENDTAB
  0
TABLE
  2
DIMSTYLE
  5
A
100
AcDbSymbolTable
 70
1
100
AcDbDimStyleTable
 71
0
  0
DIMSTYLE
105
209
100
AcDbSymbolTableRecord
100
AcDbDimStyleTableRecord
  2
STANDARD
 70
0
  3

  4

 40
1.0
 41
0.15
 42
0.03
 43
0.38
 44
0.06
 45
0.0
 46
0.0
 47
0.001
 48
0.001
140
0.1
141
0.09
142
0.0
143
25.4
144
1.0
145
0.0
146
1.0
147
0.09
 71
1.0
 72
0.0
 73
1
 74
1
 75
0
 76
0
 77
0
 78
4
170
0
171
2
172
0
173
0
174
0
175
0
176
0
177
0
178
0
270
2
271
3
272
3
273
2
274
2
275
0
280
0
281
0
282
0
283
1
284
4
285
0
286
0
287
3
288
0
340
11
278
46
  0
ENDTAB
  0
ENDSEC
  0
SECTION
  2
BLOCKS
  0
BLOCK
  5
20
100
AcDbEntity
  8
0
100
AcDbBlockBegin
  2
*Model_Space
 70
0
 10
0.0
 20
0.0
 30
0.0
  3
*Model_Space
  1

  0
ENDBLK
  5
21
100
AcDbEntity
  8
0
100
AcDbBlockEnd
  0
BLOCK
  5
1C
100
AcDbEntity
  8
0
100
AcDbBlockBegin
  2
*Paper_Space
 70
0
 10
0.0
 20
0.0
 30
0.0
  3
*Paper_Space
  1

  0
ENDBLK
  5
1D
100
AcDbEntity
  8
0
100
AcDbBlockEnd
  0
ENDSEC
  0
SECTION
  2
ENTITIES
  0
LINE
  5
20A
100
AcDbEntity
  8
0
100
AcDbLine
 62
7
  6
CONTINUOUS
 10
0.0
 20
0.0
 11
0.0
 21
8.5
  0
LINE
  5
20B
100
AcDbEntity
  8
0
100
AcDbLine
 62
7
  6
CONTINUOUS
 10
0.0
 20
0.0
 11
11.0
 21
0.0
  0
LINE
  5
20C
100
AcDbEntity
  8
0
100
AcDbLine
 62
7
  6
CONTINUOUS
 10
0.0
 20
8.5
 11
11.0
 21
8.5
  0
LINE
  5
20D
100
AcDbEntity
  8
0
100
AcDbLine
 62
7
  6
CONTINUOUS
 10
11.0
 20
0.0
 11
11.0
 21
8.5
  0
LINE
  5
20E
100
AcDbEntity
  8
0
100
AcDbLine
 62
7
  6
CONTINUOUS
 10
3.0519272575
 20
3.7157713211
 11
3.2919272575
 21
3.7157713211
  0
LINE
  5
20F
100
AcDbEntity
  8
0
100
AcDbLine
 62
7
  6
CONTINUOUS
 10
2.9219272575
 20
7.0857713211
 11
2.9219272575
 21
3.8457713211
  0
LINE
  5
210
100
AcDbEntity
  8
0
100
AcDbLine
 62
7
  6
CONTINUOUS
 10
3.4219272575
 20
3.8457713211
 11
3.4219272575
 21
7.0907713211
  0
LINE
  5
211
100
AcDbEntity
  8
0
100
AcDbLine
 62
7
  6
CONTINUOUS
 10
3.2969272575
 20
7.2157713211
 11
3.0519272575
 21
7.2157713211
  0
LINE
  5
212
100
AcDbEntity
  8
0
100
AcDbLine
 62
7
  6
CONTINUOUS
 10
4.4700359532
 20
3.7157713211
 11
4.5640359532
 21
3.7157713211
  0
LINE
  5
213
100
AcDbEntity
  8
02___PRT_ALL_AXES
100
AcDbLine
 62
8
  6
HIDDEN
 10
4.4700359532
 20
4.1222713211
 11
4.5640359532
 21
4.1222713211
  0
LINE
  5
214
100
AcDbEntity
  8
02___PRT_ALL_AXES
100
AcDbLine
 62
8
  6
HIDDEN
 10
4.4700359532
 20
4.3092713211
 11
4.5640359532
 21
4.3092713211
  0
LINE
  5
215
100
AcDbEntity
  8
02___PRT_ALL_AXES
100
AcDbLine
 62
8
  6
HIDDEN
 10
4.4700359532
 20
4.1222713211
 11
4.4700359532
 21
4.3092713211
  0
LINE
  5
216
100
AcDbEntity
  8
02___PRT_ALL_AXES
100
AcDbLine
 62
8
  6
HIDDEN
 10
4.4700359532
 20
6.6222713211
 11
4.4700359532
 21
6.8092713211
  0
LINE
  5
217
100
AcDbEntity
  8
0
100
AcDbLine
 62
7
  6
CONTINUOUS
 10
4.4700359532
 20
3.7157713211
 11
4.4700359532
 21
7.2157713211
  0
LINE
  5
218
100
AcDbEntity
  8
02___PRT_ALL_AXES
100
AcDbLine
 62
8
  6
HIDDEN
 10
4.5640359532
 20
4.1222713211
 11
4.5640359532
 21
4.3092713211
  0
LINE
  5
219
100
AcDbEntity
  8
02___PRT_ALL_AXES
100
AcDbLine
 62
8
  6
HIDDEN
 10
4.5640359532
 20
6.6222713211
 11
4.5640359532
 21
6.8092713211
  0
LINE
  5
21A
100
AcDbEntity
  8
0
100
AcDbLine
 62
7
  6
CONTINUOUS
 10
4.5640359532
 20
3.7157713211
 11
4.5640359532
 21
7.2157713211
  0
LINE
  5
21B
100
AcDbEntity
  8
02___PRT_ALL_AXES
100
AcDbLine
 62
8
  6
HIDDEN
 10
4.4700359532
 20
6.6222713211
 11
4.5640359532
 21
6.6222713211
  0
LINE
  5
21C
100
AcDbEntity
  8
02___PRT_ALL_AXES
100
AcDbLine
 62
8
  6
HIDDEN
 10
4.4700359532
 20
6.8092713211
 11
4.5640359532
 21
6.8092713211
  0
LINE
  5
21D
100
AcDbEntity
  8
0
100
AcDbLine
 62
7
  6
CONTINUOUS
 10
4.4700359532
 20
7.2157713211
 11
4.5640359532
 21
7.2157713211
  0
LINE
  5
21E
100
AcDbEntity
  8
0
100
AcDbLine
 62
7
  6
CONTINUOUS
 10
2.9219272575
 20
2.8122069398
 11
2.9219272575
 21
2.7182069398
  0
LINE
  5
21F
100
AcDbEntity
  8
02___PRT_ALL_AXES
100
AcDbLine
 62
8
  6
HIDDEN
 10
3.0784272575
 20
2.8122069398
 11
3.0784272575
 21
2.7182069398
  0
LINE
  5
220
100
AcDbEntity
  8
0
100
AcDbLine
 62
7
  6
CONTINUOUS
 10
2.9219272575
 20
2.7182069398
 11
3.4219272575
 21
2.7182069398
  0
LINE
  5
221
100
AcDbEntity
  8
02___PRT_ALL_AXES
100
AcDbLine
 62
8
  6
HIDDEN
 10
3.0784272575
 20
2.7182069398
 11
3.2654272575
 21
2.7182069398
  0
LINE
  5
222
100
AcDbEntity
  8
02___PRT_ALL_AXES
100
AcDbLine
 62
8
  6
HIDDEN
 10
3.0784272575
 20
2.8122069398
 11
3.2654272575
 21
2.8122069398
  0
LINE
  5
223
100
AcDbEntity
  8
0
100
AcDbLine
 62
7
  6
CONTINUOUS
 10
2.9219272575
 20
2.8122069398
 11
3.4219272575
 21
2.8122069398
  0
LINE
  5
224
100
AcDbEntity
  8
02___PRT_ALL_AXES
100
AcDbLine
 62
8
  6
HIDDEN
 10
3.2654272575
 20
2.8122069398
 11
3.2654272575
 21
2.7182069398
  0
LINE
  5
225
100
AcDbEntity
  8
0
100
AcDbLine
 62
7
  6
CONTINUOUS
 10
3.4219272575
 20
2.8122069398
 11
3.4219272575
 21
2.7182069398
  0
LINE
  5
226
100
AcDbEntity
  8
0
100
AcDbLine
 62
7
  6
CONTINUOUS
 10
7.258057653
 20
4.5170363413
 11
7.4791122916
 21
4.5170363413
  0
LINE
  5
227
100
AcDbEntity
  8
0
100
AcDbLine
 62
7
  6
CONTINUOUS
 10
6.1058618527
 20
6.6502440926
 11
6.1286160871
 21
6.7238768221
  0
LINE
  5
228
100
AcDbEntity
  8
DEFAULT_2
100
AcDbLine
 62
8
  6
HIDDEN
 10
7.2808118874
 20
4.5906690708
 11
7.501866526
 21
4.5906690708
  0
LINE
  5
229
100
AcDbEntity
  8
02___PRT_ALL_AXES
100
AcDbLine
 62
8
  6
HIDDEN
 10
6.3641275235
 20
6.4094718753
 11
6.3868817579
 21
6.4831046048
  0
LINE
  5
22A
100
AcDbEntity
  8
02___PRT_ALL_AXES
100
AcDbLine
 62
8
  6
HIDDEN
 10
6.5427912213
 20
6.3542606169
 11
6.5655454557
 21
6.4278933464
  0
LINE
  5
22B
100
AcDbEntity
  8
0
100
AcDbLine
 62
7
  6
CONTINUOUS
 10
6.1103286332
 20
6.6118619343
 11
7.0986642811
 21
4.5978456372
  0
LINE
  5
22C
100
AcDbEntity
  8
DEFAULT_2
100
AcDbLine
 62
8
  6
HIDDEN
 10
6.1330828676
 20
6.6854946639
 11
7.1214185155
 21
4.6714783667
  0
LINE
  5
22D
100
AcDbEntity
  8
0
100
AcDbLine
 62
7
  6
CONTINUOUS
 10
7.5591947781
 20
4.5978456372
 11
6.5693339209
 21
6.6149699842
  0
LINE
  5
22E
100
AcDbEntity
  8
0
100
AcDbLine
 62
7
  6
CONTINUOUS
 10
7.5819490125
 20
4.6714783667
 11
6.5920881553
 21
6.6886027137
  0
LINE
  5
22F
100
AcDbEntity
  8
02___PRT_ALL_AXES
100
AcDbLine
 62
8
  6
HIDDEN
 10
7.12673219
 20
4.8554469546
 11
7.1494864244
 21
4.9290796841
  0
LINE
  5
230
100
AcDbEntity
  8
02___PRT_ALL_AXES
100
AcDbLine
 62
8
  6
HIDDEN
 10
7.3053958879
 20
4.8002356962
 11
7.3281501223
 21
4.8738684257
  0
LINE
  5
231
100
AcDbEntity
  8
0
100
AcDbLine
 62
7
  6
CONTINUOUS
 10
7.5636615587
 20
4.5594634789
 11
7.5864157931
 21
4.6330962084
  0
LINE
  5
232
100
AcDbEntity
  8
0
100
AcDbLine
 62
7
  6
CONTINUOUS
 10
6.4160710633
 20
6.6926712302
 11
6.1904111198
 21
6.6926712302
  0
LINE
  5
233
100
AcDbEntity
  8
0
100
AcDbLine
 62
7
  6
CONTINUOUS
 10
6.4388252977
 20
6.7663039597
 11
6.2131653542
 21
6.7663039597
  0
ARC
  5
234
100
AcDbEntity
  8
0
100
AcDbCircle
 62
7
  6
CONTINUOUS
 10
3.2919272575
 20
3.8457713211
 40
0.13
100
AcDbArc
 50
270.0
 51
360.0
  0
ARC
  5
235
100
AcDbEntity
  8
0
100
AcDbCircle
 62
7
  6
CONTINUOUS
 10
3.0519272575
 20
3.8457713211
 40
0.13
100
AcDbArc
 50
180.0
 51
270.0
  0
ARC
  5
236
100
AcDbEntity
  8
0
100
AcDbCircle
 62
7
  6
CONTINUOUS
 10
3.0519272575
 20
7.0857713211
 40
0.13
100
AcDbArc
 50
90.0
 51
180.0
  0
ARC
  5
237
100
AcDbEntity
  8
0
100
AcDbCircle
 62
7
  6
CONTINUOUS
 10
3.2969272575
 20
7.0907713211
 40
0.125
100
AcDbArc
 50
0.0
 51
90.0
  0
CIRCLE
  5
238
100
AcDbEntity
  8
02___PRT_ALL_AXES
100
AcDbCircle
 62
7
  6
CONTINUOUS
 10
3.1719272575
 20
6.7157713211
 40
0.0935
  0
CIRCLE
  5
239
100
AcDbEntity
  8
02___PRT_ALL_AXES
100
AcDbCircle
 62
7
  6
CONTINUOUS
 10
3.1719272575
 20
4.2157713211
 40
0.0935
  0
SPLINE
  5
23A
100
AcDbEntity
  8
DEFAULT_2
100
AcDbSpline
 62
8
  6
HIDDEN
 70
0
 71
3
 72
14
 73
10
 74
0
 42
0.0000001
 43
0.0000001
 44
0.0000000001
 40
0.0
 40
0.0
 40
0.0
 40
0.0
 40
0.2711789012
 40
0.4002273165
 40
0.5253375426
 40
0.6470821906
 40
0.7662121436
 40
0.8835551803
 40
1.0
 40
1.0
 40
1.0
 40
1.0
 10
6.1330828676
 20
6.6854946639
 30
0.0
 10
6.1315070168
 20
6.6887059103
 30
0.0
 10
6.1295143687
 20
6.6936268663
 30
0.0
 10
6.127759107
 20
6.7003377036
 30
0.0
 10
6.126943489
 20
6.7052363994
 30
0.0
 10
6.1266140293
 20
6.7100605775
 30
0.0
 10
6.1267699755
 20
6.7147916872
 30
0.0
 10
6.1274109376
 20
6.7194110821
 30
0.0
 10
6.1281629097
 20
6.7224091941
 30
0.0
 10
6.1286167333
 20
6.7238766211
 30
0.0
  0
SPLINE
  5
23B
100
AcDbEntity
  8
DEFAULT_2
100
AcDbSpline
 62
8
  6
HIDDEN
 70
0
 71
3
 72
21
 73
17
 74
0
 42
0.0000001
 43
0.0000001
 44
0.0000000001
 40
0.0
 40
0.0
 40
0.0
 40
0.0
 40
0.0639377203
 40
0.1296569561
 40
0.1966698448
 40
0.2645439974
 40
0.3328737589
 40
0.4012322532
 40
0.5361907374
 40
0.6660740732
 40
0.7281970843
 40
0.7879829798
 40
0.8451917559
 40
0.8996631387
 40
0.9512870571
 40
1.0
 40
1.0
 40
1.0
 40
1.0
 10
7.2808118874
 20
4.5906690708
 30
0.0
 10
7.2768370582
 20
4.5906690708
 30
0.0
 10
7.2687746667
 20
4.5909413279
 30
0.0
 10
7.2565971546
 20
4.5921098247
 30
0.0
 10
7.2442689258
 20
4.5940400837
 30
0.0
 10
7.2319142634
 20
4.5967112253
 30
0.0
 10
7.2196490981
 20
4.6000977582
 30
0.0
 10
7.203641329
 20
4.6055000483
 30
0.0
 10
7.1845947359
 20
4.6137613977
 30
0.0
 10
7.1669753096
 20
4.6240104445
 30
0.0
 10
7.15428341
 20
4.6331906154
 30
0.0
 10
7.1457350091
 20
4.6403422972
 30
0.0
 10
7.1380978266
 20
4.6477947144
 30
0.0
 10
7.1314435572
 20
4.6554799963
 30
0.0
 10
7.1258414919
 20
4.6633230475
 30
0.0
 10
7.1227526319
 20
4.6687597234
 30
0.0
 10
7.1214185155
 20
4.6714783667
 30
0.0
  0
SPLINE
  5
23C
100
AcDbEntity
  8
02___PRT_ALL_AXES
100
AcDbSpline
 62
8
  6
HIDDEN
 70
0
 71
3
 72
34
 73
30
 74
0
 42
0.0000001
 43
0.0000001
 44
0.0000000001
 40
0.0
 40
0.0
 40
0.0
 40
0.0
 40
0.0214501967
 40
0.0432003493
 40
0.0655226428
 40
0.0886586969
 40
0.1128060789
 40
0.1381073087
 40
0.1924747399
 40
0.2216593579
 40
0.2521404032
 40
0.2838695279
 40
0.3167626746
 40
0.3855926271
 40
0.4213031622
 40
0.4576731916
 40
0.5317414717
 40
0.5691257492
 40
0.6065077869
 40
0.6437177938
 40
0.6805869046
 40
0.7526243891
 40
0.7875124893
 40
0.8214494826
 40
0.8543168832
 40
0.8860254253
 40
0.9456468007
 40
0.973500588
 40
1.0
 40
1.0
 40
1.0
 40
1.0
 10
7.1494863076
 20
4.9290797212
 30
0.0
 10
7.1499226259
 20
4.93049163
 30
0.0
 10
7.1510107854
 20
4.9332750274
 30
0.0
 10
7.1532445003
 20
4.9372138927
 30
0.0
 10
7.1560646628
 20
4.9409037235
 30
0.0
 10
7.1594520629
 20
4.9443153808
 30
0.0
 10
7.1633808946
 20
4.9474267442
 30
0.0
 10
7.1694434502
 20
4.9512428534
 30
0.0
 10
7.176363128
 20
4.9542576423
 30
0.0
 10
7.1838886548
 20
4.9565261234
 30
0.0
 10
7.1900413094
 20
4.9578932797
 30
0.0
 10
7.1965243065
 20
4.9588734743
 30
0.0
 10
7.2056883767
 20
4.9596731963
 30
0.0
 10
7.2151803685
 20
4.9596483645
 30
0.0
 10
7.2248594747
 20
4.9588647439
 30
0.0
 10
7.2348450305
 20
4.9575441637
 30
0.0
 10
7.2448324713
 20
4.9554584477
 30
0.0
 10
7.2546999808
 20
4.9526604248
 30
0.0
 10
7.2620165668
 20
4.9502051939
 30
0.0
 10
7.26917523
 20
4.9474180198
 30
0.0
 10
7.2783724607
 20
4.9433191917
 30
0.0
 10
7.2871194594
 20
4.9386244582
 30
0.0
 10
7.2952804021
 20
4.9333658254
 30
0.0
 10
7.3009523349
 20
4.9292466832
 30
0.0
 10
7.3062013113
 20
4.9249366645
 30
0.0
 10
7.3124606906
 20
4.9190981864
 30
0.0
 10
7.317898574
 20
4.9128964141
 30
0.0
 10
7.3223113432
 20
4.9063923087
 30
0.0
 10
7.3241331998
 20
4.9031129981
 30
0.0
 10
7.3249374763
 20
4.9014740549
 30
0.0
  0
SPLINE
  5
23D
100
AcDbEntity
  8
02___PRT_ALL_AXES
100
AcDbSpline
 62
8
  6
HIDDEN
 70
0
 71
3
 72
13
 73
9
 74
0
 42
0.0000001
 43
0.0000001
 44
0.0000000001
 40
0.0
 40
0.0
 40
0.0
 40
0.0
 40
0.2711197779
 40
0.5251515963
 40
0.6469812224
 40
0.7661646236
 40
0.8835411476
 40
1.0
 40
1.0
 40
1.0
 40
1.0
 10
6.5623328097
 20
6.4554989756
 30
0.0
 10
6.5634656591
 20
6.4531904712
 30
0.0
 10
6.5653436222
 20
6.4485523421
 30
0.0
 10
6.5666641819
 20
6.4425223467
 30
0.0
 10
6.5669858854
 20
6.4378309402
 30
0.0
 10
6.5668732488
 20
6.4344273365
 30
0.0
 10
6.5664118375
 20
6.4311049917
 30
0.0
 10
6.5658716993
 20
6.4289486428
 30
0.0
 10
6.5655455725
 20
6.4278933093
 30
0.0
  0
SPLINE
  5
23E
100
AcDbEntity
  8
02___PRT_ALL_AXES
100
AcDbSpline
 62
8
  6
HIDDEN
 70
0
 71
3
 72
13
 73
9
 74
0
 42
0.0000001
 43
0.0000001
 44
0.0000000001
 40
0.0
 40
0.0
 40
0.0
 40
0.0
 40
0.2711197779
 40
0.5251515963
 40
0.6469812224
 40
0.7661646236
 40
0.8835411476
 40
1.0
 40
1.0
 40
1.0
 40
1.0
 10
7.3249374763
 20
4.9014740549
 30
0.0
 10
7.3260703257
 20
4.8991655505
 30
0.0
 10
7.3279482888
 20
4.8945274214
 30
0.0
 10
7.3292688484
 20
4.888497426
 30
0.0
 10
7.3295905519
 20
4.8838060196
 30
0.0
 10
7.3294779154
 20
4.8804024158
 30
0.0
 10
7.3290165041
 20
4.877080071
 30
0.0
 10
7.3284763659
 20
4.8749237221
 30
0.0
 10
7.3281502391
 20
4.8738683886
 30
0.0
  0
SPLINE
  5
23F
100
AcDbEntity
  8
02___PRT_ALL_AXES
100
AcDbSpline
 62
8
  6
HIDDEN
 70
0
 71
3
 72
34
 73
30
 74
0
 42
0.0000001
 43
0.0000001
 44
0.0000000001
 40
0.0
 40
0.0
 40
0.0
 40
0.0
 40
0.0214501967
 40
0.0432003493
 40
0.0655226428
 40
0.0886586969
 40
0.1128060789
 40
0.1381073087
 40
0.1924747399
 40
0.2216593579
 40
0.2521404032
 40
0.2838695279
 40
0.3167626746
 40
0.3855926271
 40
0.4213031622
 40
0.4576731916
 40
0.5317414717
 40
0.5691257492
 40
0.6065077869
 40
0.6437177938
 40
0.6805869046
 40
0.7526243891
 40
0.7875124893
 40
0.8214494826
 40
0.8543168832
 40
0.8860254253
 40
0.9456468007
 40
0.973500588
 40
1.0
 40
1.0
 40
1.0
 40
1.0
 10
6.386881641
 20
6.4831046419
 30
0.0
 10
6.3873179593
 20
6.4845165507
 30
0.0
 10
6.3884061188
 20
6.4872999481
 30
0.0
 10
6.3906398337
 20
6.4912388134
 30
0.0
 10
6.3934599962
 20
6.4949286442
 30
0.0
 10
6.3968473964
 20
6.4983403015
 30
0.0
 10
6.400776228
 20
6.5014516649
 30
0.0
 10
6.4068387837
 20
6.5052677741
 30
0.0
 10
6.4137584614
 20
6.5082825629
 30
0.0
 10
6.4212839882
 20
6.5105510441
 30
0.0
 10
6.4274366428
 20
6.5119182003
 30
0.0
 10
6.4339196399
 20
6.5128983949
 30
0.0
 10
6.4430837102
 20
6.5136981169
 30
0.0
 10
6.4525757019
 20
6.5136732852
 30
0.0
 10
6.4622548081
 20
6.5128896646
 30
0.0
 10
6.4722403639
 20
6.5115690843
 30
0.0
 10
6.4822278047
 20
6.5094833684
 30
0.0
 10
6.4920953142
 20
6.5066853455
 30
0.0
 10
6.4994119002
 20
6.5042301146
 30
0.0
 10
6.5065705634
 20
6.5014429404
 30
0.0
 10
6.5157677941
 20
6.4973441124
 30
0.0
 10
6.5245147928
 20
6.4926493789
 30
0.0
 10
6.5326757355
 20
6.4873907461
 30
0.0
 10
6.5383476684
 20
6.4832716039
 30
0.0
 10
6.5435966448
 20
6.4789615852
 30
0.0
 10
6.549856024
 20
6.4731231071
 30
0.0
 10
6.5552939074
 20
6.4669213348
 30
0.0
 10
6.5597066767
 20
6.4604172294
 30
0.0
 10
6.5615285332
 20
6.4571379188
 30
0.0
 10
6.5623328097
 20
6.4554989756
 30
0.0
  0
SPLINE
  5
240
100
AcDbEntity
  8
DEFAULT_2
100
AcDbSpline
 62
8
  6
HIDDEN
 70
0
 71
3
 72
20
 73
16
 74
0
 42
0.0000001
 43
0.0000001
 44
0.0000000001
 40
0.0
 40
0.0
 40
0.0
 40
0.0
 40
0.0496616716
 40
0.0997800389
 40
0.1507880374
 40
0.2030857358
 40
0.2570167774
 40
0.3128706265
 40
0.3708812945
 40
0.4312061834
 40
0.5590783988
 40
0.6267778279
 40
0.6969381148
 40
0.8443105145
 40
1.0
 40
1.0
 40
1.0
 40
1.0
 10
7.5864151469
 20
4.6330964095
 30
0.0
 10
7.5859217679
 20
4.6315010809
 30
0.0
 10
7.5847404082
 20
4.6283511353
 30
0.0
 10
7.5824155373
 20
4.6238332991
 30
0.0
 10
7.579543828
 20
4.6195344722
 30
0.0
 10
7.576139422
 20
4.6154764468
 30
0.0
 10
7.5722214816
 20
4.6116750955
 30
0.0
 10
7.567807916
 20
4.6081473323
 30
0.0
 10
7.5629177604
 20
4.6049101419
 30
0.0
 10
7.5556554559
 20
4.6009200682
 30
0.0
 10
7.5476533674
 20
4.5976644262
 30
0.0
 10
7.5390890625
 20
4.5951047301
 30
0.0
 10
7.5297447486
 20
4.5929183084
 30
0.0
 10
7.5172990111
 20
4.5911208421
 30
0.0
 10
7.5071016018
 20
4.5906690708
 30
0.0
 10
7.501866526
 20
4.5906690708
 30
0.0
  0
SPLINE
  5
241
100
AcDbEntity
  8
02___PRT_ALL_AXES
100
AcDbSpline
 62
8
  6
HIDDEN
 70
0
 71
3
 72
19
 73
15
 74
0
 42
0.0000001
 43
0.0000001
 44
0.0000000001
 40
0.0
 40
0.0
 40
0.0
 40
0.0
 40
0.0534276154
 40
0.1071387416
 40
0.1613998608
 40
0.2164619657
 40
0.3298216971
 40
0.4489350084
 40
0.5110580995
 40
0.575014043
 40
0.640886107
 40
0.7087348717
 40
0.8503934356
 40
1.0
 40
1.0
 40
1.0
 40
1.0
 10
7.3281502391
 20
4.8738683886
 30
0.0
 10
7.3278848793
 20
4.8730096946
 30
0.0
 10
7.3272762243
 20
4.8713103429
 30
0.0
 10
7.3261385034
 20
4.8688415751
 30
0.0
 10
7.3247789655
 20
4.8664557328
 30
0.0
 10
7.3226563625
 20
4.8633646377
 30
0.0
 10
7.3194347717
 20
4.8597276993
 30
0.0
 10
7.3156179846
 20
4.8565401433
 30
0.0
 10
7.3122060158
 20
4.8542187587
 30
0.0
 10
7.3094254602
 20
4.8525728711
 30
0.0
 10
7.3064665315
 20
4.8510513952
 30
0.0
 10
7.3022320492
 20
4.8491677256
 30
0.0
 10
7.2965233675
 20
4.8471589425
 30
0.0
 10
7.2917624319
 20
4.8459709428
 30
0.0
 10
7.2892974584
 20
4.8454633851
 30
0.0
  0
SPLINE
  5
242
100
AcDbEntity
  8
02___PRT_ALL_AXES
100
AcDbSpline
 62
8
  6
HIDDEN
 70
0
 71
3
 72
10
 73
6
 74
0
 42
0.0000001
 43
0.0000001
 44
0.0000000001
 40
0.0
 40
0.0
 40
0.0
 40
0.0
 40
0.521814872
 40
0.7664955803
 40
1.0
 40
1.0
 40
1.0
 40
1.0
 10
7.1654630866
 20
4.8837867728
 30
0.0
 10
7.162820855
 20
4.8865273088
 30
0.0
 10
7.1591830937
 20
4.8908077899
 30
0.0
 10
7.1551361425
 20
4.8968845772
 30
0.0
 10
7.1534495342
 20
4.8999447706
 30
0.0
 10
7.1526990704
 20
4.9014740549
 30
0.0
  0
SPLINE
  5
243
100
AcDbEntity
  8
02___PRT_ALL_AXES
100
AcDbSpline
 62
8
  6
HIDDEN
 70
0
 71
3
 72
19
 73
15
 74
0
 42
0.0000001
 43
0.0000001
 44
0.0000000001
 40
0.0
 40
0.0
 40
0.0
 40
0.0
 40
0.0534276154
 40
0.1071387416
 40
0.1613998608
 40
0.2164619657
 40
0.3298216971
 40
0.4489350084
 40
0.5110580995
 40
0.575014043
 40
0.640886107
 40
0.7087348717
 40
0.8503934356
 40
1.0
 40
1.0
 40
1.0
 40
1.0
 10
6.5655455725
 20
6.4278933093
 30
0.0
 10
6.5652802127
 20
6.4270346153
 30
0.0
 10
6.5646715577
 20
6.4253352636
 30
0.0
 10
6.5635338368
 20
6.4228664958
 30
0.0
 10
6.562174299
 20
6.4204806534
 30
0.0
 10
6.5600516959
 20
6.4173895584
 30
0.0
 10
6.5568301051
 20
6.41375262
 30
0.0
 10
6.553013318
 20
6.4105650639
 30
0.0
 10
6.5496013492
 20
6.4082436793
 30
0.0
 10
6.5468207936
 20
6.4065977918
 30
0.0
 10
6.5438618649
 20
6.4050763159
 30
0.0
 10
6.5396273826
 20
6.4031926463
 30
0.0
 10
6.5339187009
 20
6.4011838632
 30
0.0
 10
6.5291577653
 20
6.3999958635
 30
0.0
 10
6.5266927918
 20
6.3994883058
 30
0.0
  0
SPLINE
  5
244
100
AcDbEntity
  8
02___PRT_ALL_AXES
100
AcDbSpline
 62
8
  6
HIDDEN
 70
0
 71
3
 72
10
 73
6
 74
0
 42
0.0000001
 43
0.0000001
 44
0.0000000001
 40
0.0
 40
0.0
 40
0.0
 40
0.0
 40
0.521814872
 40
0.7664955803
 40
1.0
 40
1.0
 40
1.0
 40
1.0
 10
6.40285842
 20
6.4378116935
 30
0.0
 10
6.4002161884
 20
6.4405522295
 30
0.0
 10
6.3965784271
 20
6.4448327106
 30
0.0
 10
6.3925314759
 20
6.4509094978
 30
0.0
 10
6.3908448676
 20
6.4539696913
 30
0.0
 10
6.3900944039
 20
6.4554989756
 30
0.0
  0
SPLINE
  5
245
100
AcDbEntity
  8
02___PRT_ALL_AXES
100
AcDbSpline
 62
8
  6
HIDDEN
 70
0
 71
3
 72
13
 73
9
 74
0
 42
0.0000001
 43
0.0000001
 44
0.0000000001
 40
0.0
 40
0.0
 40
0.0
 40
0.0
 40
0.2711197779
 40
0.5251515963
 40
0.6469812224
 40
0.7661646236
 40
0.8835411476
 40
1.0
 40
1.0
 40
1.0
 40
1.0
 10
6.3900944039
 20
6.4554989756
 30
0.0
 10
6.3889615545
 20
6.45780748
 30
0.0
 10
6.3870835914
 20
6.4624456091
 30
0.0
 10
6.3857630317
 20
6.4684756045
 30
0.0
 10
6.3854413282
 20
6.4731670109
 30
0.0
 10
6.3855539648
 20
6.4765706147
 30
0.0
 10
6.3860153761
 20
6.4798929595
 30
0.0
 10
6.3865555143
 20
6.4820493084
 30
0.0
 10
6.386881641
 20
6.4831046419
 30
0.0
  0
SPLINE
  5
246
100
AcDbEntity
  8
02___PRT_ALL_AXES
100
AcDbSpline
 62
8
  6
HIDDEN
 70
0
 71
3
 72
13
 73
9
 74
0
 42
0.0000001
 43
0.0000001
 44
0.0000000001
 40
0.0
 40
0.0
 40
0.0
 40
0.0
 40
0.2711197779
 40
0.5251515963
 40
0.6469812224
 40
0.7661646236
 40
0.8835411476
 40
1.0
 40
1.0
 40
1.0
 40
1.0
 10
7.1526990704
 20
4.9014740549
 30
0.0
 10
7.151566221
 20
4.9037825593
 30
0.0
 10
7.149688258
 20
4.9084206884
 30
0.0
 10
7.1483676983
 20
4.9144506839
 30
0.0
 10
7.1480459948
 20
4.9191420903
 30
0.0
 10
7.1481586314
 20
4.922545694
 30
0.0
 10
7.1486200427
 20
4.9258680388
 30
0.0
 10
7.1491601809
 20
4.9280243878
 30
0.0
 10
7.1494863076
 20
4.9290797212
 30
0.0
  0
SPLINE
  5
247
100
AcDbEntity
  8
0
100
AcDbSpline
 62
7
  6
CONTINUOUS
 70
0
 71
3
 72
20
 73
16
 74
0
 42
0.0000001
 43
0.0000001
 44
0.0000000001
 40
0.0
 40
0.0
 40
0.0
 40
0.0
 40
0.1556894855
 40
0.3030618852
 40
0.3732221721
 40
0.4409216012
 40
0.5687938166
 40
0.6291187055
 40
0.6871293735
 40
0.7429832226
 40
0.7969142642
 40
0.8492119626
 40
0.9002199611
 40
0.9503383284
 40
1.0
 40
1.0
 40
1.0
 40
1.0
 10
7.4791122916
 20
4.5170363413
 30
0.0
 10
7.4843473674
 20
4.5170363413
 30
0.0
 10
7.4945447767
 20
4.5174881125
 30
0.0
 10
7.5069905142
 20
4.5192855789
 30
0.0
 10
7.5163348281
 20
4.5214720006
 30
0.0
 10
7.524899133
 20
4.5240316966
 30
0.0
 10
7.5329012215
 20
4.5272873387
 30
0.0
 10
7.540163526
 20
4.5312774124
 30
0.0
 10
7.5450536816
 20
4.5345146028
 30
0.0
 10
7.5494672472
 20
4.538042366
 30
0.0
 10
7.5533851876
 20
4.5418437173
 30
0.0
 10
7.5567895936
 20
4.5459017427
 30
0.0
 10
7.5596613029
 20
4.5502005696
 30
0.0
 10
7.5619861738
 20
4.5547184058
 30
0.0
 10
7.5631675335
 20
4.5578683514
 30
0.0
 10
7.5636609125
 20
4.5594636799
 30
0.0
  0
SPLINE
  5
248
100
AcDbEntity
  8
0
100
AcDbSpline
 62
7
  6
CONTINUOUS
 70
0
 71
3
 72
21
 73
17
 74
0
 42
0.0000001
 43
0.0000001
 44
0.0000000001
 40
0.0
 40
0.0
 40
0.0
 40
0.0
 40
0.0487129429
 40
0.1003368613
 40
0.1548082441
 40
0.2120170202
 40
0.2718029157
 40
0.3339259268
 40
0.4638092626
 40
0.5987677468
 40
0.6671262411
 40
0.7354560026
 40
0.8033301552
 40
0.8703430439
 40
0.9360622797
 40
1.0
 40
1.0
 40
1.0
 40
1.0
 10
7.0986642811
 20
4.5978456372
 30
0.0
 10
7.0999983975
 20
4.5951269939
 30
0.0
 10
7.1030872575
 20
4.5896903179
 30
0.0
 10
7.1086893228
 20
4.5818472668
 30
0.0
 10
7.1153435922
 20
4.5741619849
 30
0.0
 10
7.1229807747
 20
4.5667095677
 30
0.0
 10
7.1315291756
 20
4.5595578859
 30
0.0
 10
7.1442210752
 20
4.550377715
 30
0.0
 10
7.1618405015
 20
4.5401286682
 30
0.0
 10
7.1808870946
 20
4.5318673188
 30
0.0
 10
7.1968948637
 20
4.5264650287
 30
0.0
 10
7.209160029
 20
4.5230784958
 30
0.0
 10
7.2215146914
 20
4.5204073542
 30
0.0
 10
7.2338429202
 20
4.5184770952
 30
0.0
 10
7.2460204323
 20
4.5173085984
 30
0.0
 10
7.2540828238
 20
4.5170363413
 30
0.0
 10
7.258057653
 20
4.5170363413
 30
0.0
  0
SPLINE
  5
249
100
AcDbEntity
  8
02___PRT_ALL_AXES
100
AcDbSpline
 62
7
  6
CONTINUOUS
 70
0
 71
3
 72
13
 73
9
 74
0
 42
0.0000001
 43
0.0000001
 44
0.0000000001
 40
0.0
 40
0.0
 40
0.0
 40
0.0
 40
0.2711197779
 40
0.5251515963
 40
0.6469812224
 40
0.7661646236
 40
0.8835411476
 40
1.0
 40
1.0
 40
1.0
 40
1.0
 10
6.5395785753
 20
6.3818662461
 30
0.0
 10
6.5407114247
 20
6.3795577417
 30
0.0
 10
6.5425893878
 20
6.3749196126
 30
0.0
 10
6.5439099475
 20
6.3688896172
 30
0.0
 10
6.544231651
 20
6.3641982107
 30
0.0
 10
6.5441190144
 20
6.360794607
 30
0.0
 10
6.5436576031
 20
6.3574722622
 30
0.0
 10
6.5431174649
 20
6.3553159132
 30
0.0
 10
6.5427913381
 20
6.3542605798
 30
0.0
  0
SPLINE
  5
24A
100
AcDbEntity
  8
02___PRT_ALL_AXES
100
AcDbSpline
 62
7
  6
CONTINUOUS
 70
0
 71
3
 72
13
 73
9
 74
0
 42
0.0000001
 43
0.0000001
 44
0.0000000001
 40
0.0
 40
0.0
 40
0.0
 40
0.0
 40
0.2711197779
 40
0.5251515963
 40
0.6469812224
 40
0.7661646236
 40
0.8835411476
 40
1.0
 40
1.0
 40
1.0
 40
1.0
 10
7.3021832419
 20
4.8278413254
 30
0.0
 10
7.3033160913
 20
4.825532821
 30
0.0
 10
7.3051940544
 20
4.8208946919
 30
0.0
 10
7.306514614
 20
4.8148646965
 30
0.0
 10
7.3068363175
 20
4.8101732901
 30
0.0
 10
7.306723681
 20
4.8067696863
 30
0.0
 10
7.3062622697
 20
4.8034473415
 30
0.0
 10
7.3057221315
 20
4.8012909926
 30
0.0
 10
7.3053960047
 20
4.8002356591
 30
0.0
  0
SPLINE
  5
24B
100
AcDbEntity
  8
0
100
AcDbSpline
 62
7
  6
CONTINUOUS
 70
0
 71
3
 72
21
 73
17
 74
0
 42
0.0000001
 43
0.0000001
 44
0.0000000001
 40
0.0
 40
0.0
 40
0.0
 40
0.0
 40
0.0639377203
 40
0.1296569561
 40
0.1966698448
 40
0.2645439974
 40
0.3328737589
 40
0.4012322532
 40
0.5361907374
 40
0.6660740732
 40
0.7281970843
 40
0.7879829798
 40
0.8451917559
 40
0.8996631387
 40
0.9512870571
 40
1.0
 40
1.0
 40
1.0
 40
1.0
 10
6.4388252977
 20
6.7663039597
 30
0.0
 10
6.4426472489
 20
6.7663039597
 30
0.0
 10
6.4503995484
 20
6.7660421741
 30
0.0
 10
6.4621086947
 20
6.7649186194
 30
0.0
 10
6.4739627608
 20
6.7630626012
 30
0.0
 10
6.4858422439
 20
6.7604941958
 30
0.0
 10
6.497635672
 20
6.7572379141
 30
0.0
 10
6.5130277577
 20
6.7520434044
 30
0.0
 10
6.5313417896
 20
6.7440997992
 30
0.0
 10
6.5482835456
 20
6.7342449466
 30
0.0
 10
6.5604872952
 20
6.7254178592
 30
0.0
 10
6.5687069115
 20
6.718541242
 30
0.0
 10
6.5760503562
 20
6.7113754563
 30
0.0
 10
6.5824486922
 20
6.7039857621
 30
0.0
 10
6.5878352935
 20
6.6964443668
 30
0.0
 10
6.5908053511
 20
6.6912167938
 30
0.0
 10
6.5920881553
 20
6.6886027137
 30
0.0
  0
SPLINE
  5
24C
100
AcDbEntity
  8
02___PRT_ALL_AXES
100
AcDbSpline
 62
7
  6
CONTINUOUS
 70
0
 71
3
 72
22
 73
18
 74
0
 42
0.0000001
 43
0.0000001
 44
0.0000000001
 40
0.0
 40
0.0
 40
0.0
 40
0.0
 40
0.0561061102
 40
0.1146312387
 40
0.2378649251
 40
0.3020145719
 40
0.3673567291
 40
0.4335086251
 40
0.500064926
 40
0.5666164201
 40
0.6327579929
 40
0.6980877283
 40
0.7622170392
 40
0.8247859377
 40
0.8854539105
 40
0.94392987
 40
1.0
 40
1.0
 40
1.0
 40
1.0
 10
7.2892974584
 20
4.8454633851
 30
0.0
 10
7.2868365116
 20
4.8449566566
 30
0.0
 10
7.2817636657
 20
4.8441297657
 30
0.0
 10
7.2711458875
 20
4.8431918785
 30
0.0
 10
7.2600982841
 20
4.8433614939
 30
0.0
 10
7.2488377732
 20
4.8445356822
 30
0.0
 10
7.2401854685
 20
4.8459474912
 30
0.0
 10
7.2315217474
 20
4.8478658795
 30
0.0
 10
7.2229236861
 20
4.8502700115
 30
0.0
 10
7.2144708884
 20
4.8531420122
 30
0.0
 10
7.2062396904
 20
4.8564538429
 30
0.0
 10
7.1983042251
 20
4.8601740751
 30
0.0
 10
7.1907386834
 20
4.8642728961
 30
0.0
 10
7.1836101715
 20
4.8687088013
 30
0.0
 10
7.1769834386
 20
4.8734421355
 30
0.0
 10
7.1709204213
 20
4.8784325328
 30
0.0
 10
7.1672058894
 20
4.8819791289
 30
0.0
 10
7.1654630866
 20
4.8837867728
 30
0.0
  0
SPLINE
  5
24D
100
AcDbEntity
  8
02___PRT_ALL_AXES
100
AcDbSpline
 62
7
  6
CONTINUOUS
 70
0
 71
3
 72
34
 73
30
 74
0
 42
0.0000001
 43
0.0000001
 44
0.0000000001
 40
0.0
 40
0.0
 40
0.0
 40
0.0
 40
0.0214501967
 40
0.0432003493
 40
0.0655226428
 40
0.0886586969
 40
0.1128060789
 40
0.1381073087
 40
0.1924747399
 40
0.2216593579
 40
0.2521404032
 40
0.2838695279
 40
0.3167626746
 40
0.3855926271
 40
0.4213031622
 40
0.4576731916
 40
0.5317414717
 40
0.5691257492
 40
0.6065077869
 40
0.6437177938
 40
0.6805869046
 40
0.7526243891
 40
0.7875124893
 40
0.8214494826
 40
0.8543168832
 40
0.8860254253
 40
0.9456468007
 40
0.973500588
 40
1.0
 40
1.0
 40
1.0
 40
1.0
 10
7.1267320732
 20
4.8554469917
 30
0.0
 10
7.1271683915
 20
4.8568589005
 30
0.0
 10
7.128256551
 20
4.8596422979
 30
0.0
 10
7.1304902659
 20
4.8635811632
 30
0.0
 10
7.1333104284
 20
4.867270994
 30
0.0
 10
7.1366978285
 20
4.8706826513
 30
0.0
 10
7.1406266602
 20
4.8737940147
 30
0.0
 10
7.1466892158
 20
4.8776101239
 30
0.0
 10
7.1536088936
 20
4.8806249128
 30
0.0
 10
7.1611344204
 20
4.8828933939
 30
0.0
 10
7.167287075
 20
4.8842605502
 30
0.0
 10
7.1737700721
 20
4.8852407448
 30
0.0
 10
7.1829341423
 20
4.8860404668
 30
0.0
 10
7.1924261341
 20
4.886015635
 30
0.0
 10
7.2021052403
 20
4.8852320144
 30
0.0
 10
7.2120907961
 20
4.8839114341
 30
0.0
 10
7.2220782369
 20
4.8818257182
 30
0.0
 10
7.2319457464
 20
4.8790276953
 30
0.0
 10
7.2392623324
 20
4.8765724644
 30
0.0
 10
7.2464209956
 20
4.8737852903
 30
0.0
 10
7.2556182263
 20
4.8696864622
 30
0.0
 10
7.264365225
 20
4.8649917287
 30
0.0
 10
7.2725261677
 20
4.8597330959
 30
0.0
 10
7.2781981005
 20
4.8556139537
 30
0.0
 10
7.2834470769
 20
4.851303935
 30
0.0
 10
7.2897064562
 20
4.8454654569
 30
0.0
 10
7.2951443396
 20
4.8392636846
 30
0.0
 10
7.2995571088
 20
4.8327595792
 30
0.0
 10
7.3013789654
 20
4.8294802686
 30
0.0
 10
7.3021832419
 20
4.8278413254
 30
0.0
  0
SPLINE
  5
24E
100
AcDbEntity
  8
02___PRT_ALL_AXES
100
AcDbSpline
 62
7
  6
CONTINUOUS
 70
0
 71
3
 72
22
 73
18
 74
0
 42
0.0000001
 43
0.0000001
 44
0.0000000001
 40
0.0
 40
0.0
 40
0.0
 40
0.0
 40
0.0561061102
 40
0.1146312387
 40
0.2378649251
 40
0.3020145719
 40
0.3673567291
 40
0.4335086251
 40
0.500064926
 40
0.5666164201
 40
0.6327579929
 40
0.6980877283
 40
0.7622170392
 40
0.8247859377
 40
0.8854539105
 40
0.94392987
 40
1.0
 40
1.0
 40
1.0
 40
1.0
 10
6.5266927918
 20
6.3994883058
 30
0.0
 10
6.5242318451
 20
6.3989815773
 30
0.0
 10
6.5191589991
 20
6.3981546864
 30
0.0
 10
6.5085412209
 20
6.3972167992
 30
0.0
 10
6.4974936175
 20
6.3973864146
 30
0.0
 10
6.4862331066
 20
6.3985606028
 30
0.0
 10
6.4775808019
 20
6.3999724119
 30
0.0
 10
6.4689170808
 20
6.4018908002
 30
0.0
 10
6.4603190195
 20
6.4042949322
 30
0.0
 10
6.4518662218
 20
6.4071669329
 30
0.0
 10
6.4436350238
 20
6.4104787636
 30
0.0
 10
6.4356995585
 20
6.4141989958
 30
0.0
 10
6.4281340168
 20
6.4182978167
 30
0.0
 10
6.4210055049
 20
6.422733722
 30
0.0
 10
6.4143787721
 20
6.4274670562
 30
0.0
 10
6.4083157547
 20
6.4324574535
 30
0.0
 10
6.4046012228
 20
6.4360040495
 30
0.0
 10
6.40285842
 20
6.4378116935
 30
0.0
  0
SPLINE
  5
24F
100
AcDbEntity
  8
0
100
AcDbSpline
 62
7
  6
CONTINUOUS
 70
0
 71
3
 72
14
 73
10
 74
0
 42
0.0000001
 43
0.0000001
 44
0.0000000001
 40
0.0
 40
0.0
 40
0.0
 40
0.0
 40
0.2711789012
 40
0.4002273165
 40
0.5253375426
 40
0.6470821906
 40
0.7662121436
 40
0.8835551803
 40
1.0
 40
1.0
 40
1.0
 40
1.0
 10
7.5819490125
 20
4.6714783667
 30
0.0
 10
7.5835248634
 20
4.6682671202
 30
0.0
 10
7.5855175114
 20
4.6633461642
 30
0.0
 10
7.5872727732
 20
4.6566353269
 30
0.0
 10
7.5880883911
 20
4.6517366311
 30
0.0
 10
7.5884178509
 20
4.646912453
 30
0.0
 10
7.5882619047
 20
4.6421813433
 30
0.0
 10
7.5876209425
 20
4.6375619485
 30
0.0
 10
7.5868689704
 20
4.6345638364
 30
0.0
 10
7.5864151469
 20
4.6330964095
 30
0.0
  0
SPLINE
  5
250
100
AcDbEntity
  8
02___PRT_ALL_AXES
100
AcDbSpline
 62
7
  6
CONTINUOUS
 70
0
 71
3
 72
34
 73
30
 74
0
 42
0.0000001
 43
0.0000001
 44
0.0000000001
 40
0.0
 40
0.0
 40
0.0
 40
0.0
 40
0.0214501967
 40
0.0432003493
 40
0.0655226428
 40
0.0886586969
 40
0.1128060789
 40
0.1381073087
 40
0.1924747399
 40
0.2216593579
 40
0.2521404032
 40
0.2838695279
 40
0.3167626746
 40
0.3855926271
 40
0.4213031622
 40
0.4576731916
 40
0.5317414717
 40
0.5691257492
 40
0.6065077869
 40
0.6437177938
 40
0.6805869046
 40
0.7526243891
 40
0.7875124893
 40
0.8214494826
 40
0.8543168832
 40
0.8860254253
 40
0.9456468007
 40
0.973500588
 40
1.0
 40
1.0
 40
1.0
 40
1.0
 10
6.3641274066
 20
6.4094719124
 30
0.0
 10
6.3645637249
 20
6.4108838212
 30
0.0
 10
6.3656518844
 20
6.4136672186
 30
0.0
 10
6.3678855993
 20
6.4176060839
 30
0.0
 10
6.3707057618
 20
6.4212959147
 30
0.0
 10
6.374093162
 20
6.424707572
 30
0.0
 10
6.3780219936
 20
6.4278189354
 30
0.0
 10
6.3840845493
 20
6.4316350446
 30
0.0
 10
6.391004227
 20
6.4346498334
 30
0.0
 10
6.3985297538
 20
6.4369183146
 30
0.0
 10
6.4046824084
 20
6.4382854708
 30
0.0
 10
6.4111654055
 20
6.4392656654
 30
0.0
 10
6.4203294758
 20
6.4400653874
 30
0.0
 10
6.4298214675
 20
6.4400405557
 30
0.0
 10
6.4395005737
 20
6.4392569351
 30
0.0
 10
6.4494861295
 20
6.4379363548
 30
0.0
 10
6.4594735703
 20
6.4358506389
 30
0.0
 10
6.4693410798
 20
6.433052616
 30
0.0
 10
6.4766576658
 20
6.4305973851
 30
0.0
 10
6.483816329
 20
6.4278102109
 30
0.0
 10
6.4930135597
 20
6.4237113828
 30
0.0
 10
6.5017605584
 20
6.4190166494
 30
0.0
 10
6.5099215011
 20
6.4137580166
 30
0.0
 10
6.515593434
 20
6.4096388744
 30
0.0
 10
6.5208424104
 20
6.4053288557
 30
0.0
 10
6.5271017896
 20
6.3994903776
 30
0.0
 10
6.532539673
 20
6.3932886053
 30
0.0
 10
6.5369524423
 20
6.3867844999
 30
0.0
 10
6.5387742988
 20
6.3835051893
 30
0.0
 10
6.5395785753
 20
6.3818662461
 30
0.0
  0
SPLINE
  5
251
100
AcDbEntity
  8
0
100
AcDbSpline
 62
7
  6
CONTINUOUS
 70
0
 71
3
 72
20
 73
16
 74
0
 42
0.0000001
 43
0.0000001
 44
0.0000000001
 40
0.0
 40
0.0
 40
0.0
 40
0.0
 40
0.0496616716
 40
0.0997800389
 40
0.1507880374
 40
0.2030857358
 40
0.2570167774
 40
0.3128706265
 40
0.3708812945
 40
0.4312061834
 40
0.5590783988
 40
0.6267778279
 40
0.6969381148
 40
0.8443105145
 40
1.0
 40
1.0
 40
1.0
 40
1.0
 10
6.1286167333
 20
6.7238766211
 30
0.0
 10
6.1291101123
 20
6.7254719496
 30
0.0
 10
6.1302914719
 20
6.7286218952
 30
0.0
 10
6.1326163429
 20
6.7331397314
 30
0.0
 10
6.1354880522
 20
6.7374385583
 30
0.0
 10
6.1388924582
 20
6.7414965837
 30
0.0
 10
6.1428103986
 20
6.745297935
 30
0.0
 10
6.1472239642
 20
6.7488256982
 30
0.0
 10
6.1521141198
 20
6.7520628886
 30
0.0
 10
6.1593764243
 20
6.7560529623
 30
0.0
 10
6.1673785128
 20
6.7593086044
 30
0.0
 10
6.1759428177
 20
6.7618683004
 30
0.0
 10
6.1852871316
 20
6.7640547221
 30
0.0
 10
6.197732869
 20
6.7658521885
 30
0.0
 10
6.2079302784
 20
6.7663039597
 30
0.0
 10
6.2131653542
 20
6.7663039597
 30
0.0
  0
SPLINE
  5
252
100
AcDbEntity
  8
0
100
AcDbSpline
 62
7
  6
CONTINUOUS
 70
0
 71
3
 72
14
 73
10
 74
0
 42
0.0000001
 43
0.0000001
 44
0.0000000001
 40
0.0
 40
0.0
 40
0.0
 40
0.0
 40
0.1164448197
 40
0.2337878564
 40
0.3529178094
 40
0.4746624574
 40
0.5997726835
 40
0.7288210988
 40
1.0
 40
1.0
 40
1.0
 40
1.0
 10
6.1058624989
 20
6.6502438915
 30
0.0
 10
6.1054086753
 20
6.6487764646
 30
0.0
 10
6.1046567032
 20
6.6457783525
 30
0.0
 10
6.1040157411
 20
6.6411589577
 30
0.0
 10
6.1038597949
 20
6.636427848
 30
0.0
 10
6.1041892546
 20
6.6316036699
 30
0.0
 10
6.1050048726
 20
6.6267049741
 30
0.0
 10
6.1067601343
 20
6.6199941368
 30
0.0
 10
6.1087527824
 20
6.6150731808
 30
0.0
 10
6.1103286332
 20
6.6118619343
 30
0.0
  0
SPLINE
  5
253
100
AcDbEntity
  8
02___PRT_ALL_AXES
100
AcDbSpline
 62
7
  6
CONTINUOUS
 70
0
 71
3
 72
34
 73
30
 74
0
 42
0.0000001
 43
0.0000001
 44
0.0000000001
 40
0.0
 40
0.0
 40
0.0
 40
0.0
 40
0.0214501967
 40
0.0432003493
 40
0.0655226428
 40
0.0886586969
 40
0.1128060789
 40
0.1381073087
 40
0.1924747399
 40
0.2216593579
 40
0.2521404032
 40
0.2838695279
 40
0.3167626746
 40
0.3855926271
 40
0.4213031622
 40
0.4576731916
 40
0.5317414717
 40
0.5691257492
 40
0.6065077869
 40
0.6437177938
 40
0.6805869046
 40
0.7526243891
 40
0.7875124893
 40
0.8214494826
 40
0.8543168832
 40
0.8860254253
 40
0.9456468007
 40
0.973500588
 40
1.0
 40
1.0
 40
1.0
 40
1.0
 10
6.5427913381
 20
6.3542605798
 30
0.0
 10
6.5423550199
 20
6.352848671
 30
0.0
 10
6.5412668604
 20
6.3500652736
 30
0.0
 10
6.5390331454
 20
6.3461264083
 30
0.0
 10
6.536212983
 20
6.3424365775
 30
0.0
 10
6.5328255828
 20
6.3390249202
 30
0.0
 10
6.5288967512
 20
6.3359135568
 30
0.0
 10
6.5228341955
 20
6.3320974476
 30
0.0
 10
6.5159145178
 20
6.3290826587
 30
0.0
 10
6.508388991
 20
6.3268141776
 30
0.0
 10
6.5022363364
 20
6.3254470213
 30
0.0
 10
6.4957533393
 20
6.3244668267
 30
0.0
 10
6.486589269
 20
6.3236671047
 30
0.0
 10
6.4770972773
 20
6.3236919365
 30
0.0
 10
6.4674181711
 20
6.3244755571
 30
0.0
 10
6.4574326153
 20
6.3257961374
 30
0.0
 10
6.4474451745
 20
6.3278818533
 30
0.0
 10
6.437577665
 20
6.3306798762
 30
0.0
 10
6.430261079
 20
6.3331351071
 30
0.0
 10
6.4231024158
 20
6.3359222812
 30
0.0
 10
6.4139051851
 20
6.3400211093
 30
0.0
 10
6.4051581864
 20
6.3447158428
 30
0.0
 10
6.3969972437
 20
6.3499744756
 30
0.0
 10
6.3913253108
 20
6.3540936178
 30
0.0
 10
6.3860763344
 20
6.3584036365
 30
0.0
 10
6.3798169552
 20
6.3642421146
 30
0.0
 10
6.3743790718
 20
6.3704438869
 30
0.0
 10
6.3699663025
 20
6.3769479923
 30
0.0
 10
6.3681444459
 20
6.3802273029
 30
0.0
 10
6.3673401695
 20
6.3818662461
 30
0.0
  0
SPLINE
  5
254
100
AcDbEntity
  8
02___PRT_ALL_AXES
100
AcDbSpline
 62
7
  6
CONTINUOUS
 70
0
 71
3
 72
13
 73
9
 74
0
 42
0.0000001
 43
0.0000001
 44
0.0000000001
 40
0.0
 40
0.0
 40
0.0
 40
0.0
 40
0.2711197779
 40
0.5251515963
 40
0.6469812224
 40
0.7661646236
 40
0.8835411476
 40
1.0
 40
1.0
 40
1.0
 40
1.0
 10
6.3673401695
 20
6.3818662461
 30
0.0
 10
6.3662073201
 20
6.3841747505
 30
0.0
 10
6.364329357
 20
6.3888128796
 30
0.0
 10
6.3630087973
 20
6.394842875
 30
0.0
 10
6.3626870938
 20
6.3995342814
 30
0.0
 10
6.3627997304
 20
6.4029378852
 30
0.0
 10
6.3632611417
 20
6.40626023
 30
0.0
 10
6.3638012799
 20
6.4084165789
 30
0.0
 10
6.3641274066
 20
6.4094719124
 30
0.0
  0
SPLINE
  5
255
100
AcDbEntity
  8
02___PRT_ALL_AXES
100
AcDbSpline
 62
7
  6
CONTINUOUS
 70
0
 71
3
 72
34
 73
30
 74
0
 42
0.0000001
 43
0.0000001
 44
0.0000000001
 40
0.0
 40
0.0
 40
0.0
 40
0.0
 40
0.0214501967
 40
0.0432003493
 40
0.0655226428
 40
0.0886586969
 40
0.1128060789
 40
0.1381073087
 40
0.1924747399
 40
0.2216593579
 40
0.2521404032
 40
0.2838695279
 40
0.3167626746
 40
0.3855926271
 40
0.4213031622
 40
0.4576731916
 40
0.5317414717
 40
0.5691257492
 40
0.6065077869
 40
0.6437177938
 40
0.6805869046
 40
0.7526243891
 40
0.7875124893
 40
0.8214494826
 40
0.8543168832
 40
0.8860254253
 40
0.9456468007
 40
0.973500588
 40
1.0
 40
1.0
 40
1.0
 40
1.0
 10
7.3053960047
 20
4.8002356591
 30
0.0
 10
7.3049596865
 20
4.7988237503
 30
0.0
 10
7.3038715269
 20
4.7960403529
 30
0.0
 10
7.301637812
 20
4.7921014876
 30
0.0
 10
7.2988176495
 20
4.7884116568
 30
0.0
 10
7.2954302494
 20
4.7849999995
 30
0.0
 10
7.2915014178
 20
4.7818886361
 30
0.0
 10
7.2854388621
 20
4.7780725269
 30
0.0
 10
7.2785191844
 20
4.7750577381
 30
0.0
 10
7.2709936576
 20
4.7727892569
 30
0.0
 10
7.264841003
 20
4.7714221007
 30
0.0
 10
7.2583580058
 20
4.7704419061
 30
0.0
 10
7.2491939356
 20
4.7696421841
 30
0.0
 10
7.2397019438
 20
4.7696670158
 30
0.0
 10
7.2300228376
 20
4.7704506364
 30
0.0
 10
7.2200372819
 20
4.7717712167
 30
0.0
 10
7.210049841
 20
4.7738569326
 30
0.0
 10
7.2001823315
 20
4.7766549555
 30
0.0
 10
7.1928657455
 20
4.7791101864
 30
0.0
 10
7.1857070823
 20
4.7818973606
 30
0.0
 10
7.1765098517
 20
4.7859961887
 30
0.0
 10
7.167762853
 20
4.7906909221
 30
0.0
 10
7.1596019102
 20
4.7959495549
 30
0.0
 10
7.1539299774
 20
4.8000686971
 30
0.0
 10
7.148681001
 20
4.8043787158
 30
0.0
 10
7.1424216218
 20
4.8102171939
 30
0.0
 10
7.1369837384
 20
4.8164189662
 30
0.0
 10
7.1325709691
 20
4.8229230716
 30
0.0
 10
7.1307491125
 20
4.8262023822
 30
0.0
 10
7.129944836
 20
4.8278413254
 30
0.0
  0
SPLINE
  5
256
100
AcDbEntity
  8
0
100
AcDbSpline
 62
7
  6
CONTINUOUS
 70
0
 71
3
 72
14
 73
10
 74
0
 42
0.0000001
 43
0.0000001
 44
0.0000000001
 40
0.0
 40
0.0
 40
0.0
 40
0.0
 40
0.1164448197
 40
0.2337878564
 40
0.3529178094
 40
0.4746624574
 40
0.5997726835
 40
0.7288210988
 40
1.0
 40
1.0
 40
1.0
 40
1.0
 10
7.5636609125
 20
4.5594636799
 30
0.0
 10
7.564114736
 20
4.5609311069
 30
0.0
 10
7.5648667081
 20
4.563929219
 30
0.0
 10
7.5655076703
 20
4.5685486138
 30
0.0
 10
7.5656636165
 20
4.5732797235
 30
0.0
 10
7.5653341567
 20
4.5781039016
 30
0.0
 10
7.5645185388
 20
4.5830025974
 30
0.0
 10
7.562763277
 20
4.5897134347
 30
0.0
 10
7.560770629
 20
4.5946343907
 30
0.0
 10
7.5591947781
 20
4.5978456372
 30
0.0
  0
SPLINE
  5
257
100
AcDbEntity
  8
0
100
AcDbSpline
 62
7
  6
CONTINUOUS
 70
0
 71
3
 72
21
 73
17
 74
0
 42
0.0000001
 43
0.0000001
 44
0.0000000001
 40
0.0
 40
0.0
 40
0.0
 40
0.0
 40
0.0487129429
 40
0.1003368613
 40
0.1548082441
 40
0.2120170202
 40
0.2718029157
 40
0.3339259268
 40
0.4638092626
 40
0.5987677468
 40
0.6671262411
 40
0.7354560026
 40
0.8033301552
 40
0.8703430439
 40
0.9360622797
 40
1.0
 40
1.0
 40
1.0
 40
1.0
 10
6.5693339209
 20
6.6149699842
 30
0.0
 10
6.5680511167
 20
6.6175840643
 30
0.0
 10
6.5650810591
 20
6.6228116373
 30
0.0
 10
6.5596944578
 20
6.6303530326
 30
0.0
 10
6.5532961218
 20
6.6377427268
 30
0.0
 10
6.5459526771
 20
6.6449085125
 30
0.0
 10
6.5377330608
 20
6.6517851296
 30
0.0
 10
6.5255293112
 20
6.6606122171
 30
0.0
 10
6.5085875552
 20
6.6704670697
 30
0.0
 10
6.4902735233
 20
6.6784106749
 30
0.0
 10
6.4748814376
 20
6.6836051846
 30
0.0
 10
6.4630880095
 20
6.6868614663
 30
0.0
 10
6.4512085264
 20
6.6894298717
 30
0.0
 10
6.4393544603
 20
6.6912858899
 30
0.0
 10
6.427645314
 20
6.6924094445
 30
0.0
 10
6.4198930145
 20
6.6926712302
 30
0.0
 10
6.4160710633
 20
6.6926712302
 30
0.0
  0
SPLINE
  5
258
100
AcDbEntity
  8
02___PRT_ALL_AXES
100
AcDbSpline
 62
7
  6
CONTINUOUS
 70
0
 71
3
 72
13
 73
9
 74
0
 42
0.0000001
 43
0.0000001
 44
0.0000000001
 40
0.0
 40
0.0
 40
0.0
 40
0.0
 40
0.2711197779
 40
0.5251515963
 40
0.6469812224
 40
0.7661646236
 40
0.8835411476
 40
1.0
 40
1.0
 40
1.0
 40
1.0
 10
7.129944836
 20
4.8278413254
 30
0.0
 10
7.1288119866
 20
4.8301498298
 30
0.0
 10
7.1269340236
 20
4.8347879589
 30
0.0
 10
7.1256134639
 20
4.8408179543
 30
0.0
 10
7.1252917604
 20
4.8455093608
 30
0.0
 10
7.1254043969
 20
4.8489129645
 30
0.0
 10
7.1258658083
 20
4.8522353093
 30
0.0
 10
7.1264059465
 20
4.8543916583
 30
0.0
 10
7.1267320732
 20
4.8554469917
 30
0.0
  0
SPLINE
  5
259
100
AcDbEntity
  8
0
100
AcDbSpline
 62
7
  6
CONTINUOUS
 70
0
 71
3
 72
20
 73
16
 74
0
 42
0.0000001
 43
0.0000001
 44
0.0000000001
 40
0.0
 40
0.0
 40
0.0
 40
0.0
 40
0.1556894855
 40
0.3030618852
 40
0.3732221721
 40
0.4409216012
 40
0.5687938166
 40
0.6291187055
 40
0.6871293735
 40
0.7429832226
 40
0.7969142642
 40
0.8492119626
 40
0.9002199611
 40
0.9503383284
 40
1.0
 40
1.0
 40
1.0
 40
1.0
 10
6.1904111198
 20
6.6926712302
 30
0.0
 10
6.185176044
 20
6.6926712302
 30
0.0
 10
6.1749786346
 20
6.6922194589
 30
0.0
 10
6.1625328972
 20
6.6904219926
 30
0.0
 10
6.1531885833
 20
6.6882355709
 30
0.0
 10
6.1446242784
 20
6.6856758748
 30
0.0
 10
6.1366221899
 20
6.6824202328
 30
0.0
 10
6.1293598854
 20
6.6784301591
 30
0.0
 10
6.1244697298
 20
6.6751929687
 30
0.0
 10
6.1200561642
 20
6.6716652055
 30
0.0
 10
6.1161382238
 20
6.6678638542
 30
0.0
 10
6.1127338178
 20
6.6638058288
 30
0.0
 10
6.1098621085
 20
6.6595070019
 30
0.0
 10
6.1075372375
 20
6.6549891657
 30
0.0
 10
6.1063558779
 20
6.6518392201
 30
0.0
 10
6.1058624989
 20
6.6502438915
 30
0.0
  0
ENDSEC
  0
SECTION
  2
OBJECTS
  0
DICTIONARY
  5
C
100
AcDbDictionary
280
0
281
1
  3
ACAD_GROUP
350
D
  3
ACAD_MLINESTYLE
350
17
  3
ACAD_LAYOUT
350
1A
  3
ACAD_PLOTSETTINGS
350
19
  3
ACAD_PLOTSTYLENAME
350
E
  0
DICTIONARY
  5
D
102
{ACAD_REACTORS
330
C
102
}
100
AcDbDictionary
280
0
281
1
  0
ACDBDICTIONARYWDFLT
  5
E
102
{ACAD_REACTORS
330
C
102
}
100
AcDbDictionary
281
1
  3
Normal
350
F
100
AcDbDictionaryWithDefault
340
F
  0
DICTIONARY
  5
17
102
{ACAD_REACTORS
330
C
102
}
100
AcDbDictionary
280
0
281
1
  3
Standard
350
18
  0
DICTIONARY
  5
19
102
{ACAD_REACTORS
330
C
102
}
100
AcDbDictionary
281
1
  0
DICTIONARY
  5
1A
102
{ACAD_REACTORS
330
C
102
}
100
AcDbDictionary
281
1
  3
Model
350
25A
  3
Layout1
350
25B
  0
ACDBPLACEHOLDER
  5
F
102
{ACAD_REACTORS
330
E
102
}
  0
MLINESTYLE
  5
18
102
{ACAD_REACTORS
330
17
102
}
100
AcDbMlineStyle
  2
STANDARD
 70
0
  3

 62
256
 51
90.0
 52
90.0
 71
2
 49
0.5
 62
256
  6
BYLAYER
 49
-0.5
 62
256
  6
BYLAYER
  0
LAYOUT
  5
25A
102
{ACAD_REACTORS
330
1A
102
}
100
AcDbPlotSettings
  1

  2
none_device
  4
ANSI_A_(11.00_x_8.50_Inches)
  6

 40
0.0
 41
0.0
 42
0.0
 43
0.0
 44
279.4
 45
215.9
 46
0.0
 47
0.0
 48
0.0
 49
0.0
140
0.0
141
0.0
142
1.0
143
1.0
 70
1024
 72
0
 73
0
 74
0
  7

 75
0
147
1.0
148
0.0
149
0.0
100
AcDbLayout
  1
Model
 70
0
 71
0
 10
0.0
 20
0.0
 11
11.0
 21
8.5
 12
0.0
 22
0.0
 32
0.0
 14
0.0
 24
0.0
 34
0.0
 15
0.0
 25
0.0
 35
0.0
146
0.0
 13
0.0
 23
0.0
 33
0.0
 16
1.0
 26
0.0
 36
0.0
 17
0.0
 27
1.0
 37
0.0
 76
0
330
207
345
0
346
0
  0
LAYOUT
  5
25B
102
{ACAD_REACTORS
330
1A
102
}
100
AcDbPlotSettings
  1

  2
none_device
  4
ANSI_A_(11.00_x_8.50_Inches)
  6

 40
0.0
 41
0.0
 42
0.0
 43
0.0
 44
279.4
 45
215.9
 46
0.0
 47
0.0
 48
0.0
 49
0.0
140
0.0
141
0.0
142
1.0
143
1.0
 70
0
 72
0
 73
0
 74
0
  7

 75
0
147
1.0
148
0.0
149
0.0
100
AcDbLayout
  1
Layout1
 70
0
 71
1
 10
0.0
 20
0.0
 11
11.0
 21
8.5
 12
0.0
 22
0.0
 32
0.0
 14
0.0
 24
0.0
 34
0.0
 15
0.0
 25
0.0
 35
0.0
146
0.0
 13
0.0
 23
0.0
 33
0.0
 16
1.0
 26
0.0
 36
0.0
 17
0.0
 27
1.0
 37
0.0
 76
0
330
208
345
0
346
0
  0
ENDSEC
  0
EOF
