  0
SECTION
  2
HEADER
  9
$ACADVER
  1
AC1021
  9
$ACADMAINTVER
 70
    25
  9
$DWGCODEPAGE
  3
ANSI_1252
  9
$INSBASE
 10
0.0
 20
0.0
 30
0.0
  9
$EXTMIN
 10
-134.2083
 20
-95.583
 30
0.0
  9
$EXTMAX
 10
132.074
 20
95.5272
 30
0.0
  9
$LIMMIN
 10
-134.2083
 20
-95.583
  9
$LIMMAX
 10
132.074
 20
95.5272
  9
$ORTHOMODE
 70
     0
  9
$REGENMODE
 70
     1
  9
$FILLMODE
 70
     1
  9
$QTEXTMODE
 70
     0
  9
$MIRRTEXT
 70
     1
  9
$LTSCALE
 40
1.0
  9
$ATTMODE
 70
     1
  9
$TEXTSIZE
 40
0.2
  9
$TRACEWID
 40
0.05
  9
$TEXTSTYLE
  7
STANDARD
  9
$CLAYER
  8
Gehause
  9
$CELTYPE
  6
BYLAYER
  9
$CECOLOR
 62
   256
  9
$CELTSCALE
 40
1.0
  9
$DISPSILH
 70
     0
  9
$DIMSCALE
 40
1.0
  9
$DIMASZ
 40
0.18
  9
$DIMEXO
 40
0.0625
  9
$DIMDLI
 40
0.38
  9
$DIMRND
 40
0.0
  9
$DIMDLE
 40
0.0
  9
$DIMEXE
 40
0.18
  9
$DIMTP
 40
0.0
  9
$DIMTM
 40
0.0
  9
$DIMTXT
 40
0.18
  9
$DIMCEN
 40
0.09
  9
$DIMTSZ
 40
0.0
  9
$DIMTOL
 70
     0
  9
$DIMLIM
 70
     0
  9
$DIMTIH
 70
     1
  9
$DIMTOH
 70
     1
  9
$DIMSE1
 70
     0
  9
$DIMSE2
 70
     0
  9
$DIMTAD
 70
     0
  9
$DIMZIN
 70
     0
  9
$DIMBLK
  1

  9
$DIMASO
 70
     1
  9
$DIMSHO
 70
     1
  9
$DIMPOST
  1

  9
$DIMAPOST
  1

  9
$DIMALT
 70
     0
  9
$DIMALTD
 70
     2
  9
$DIMALTF
 40
25.4
  9
$DIMLFAC
 40
1.0
  9
$DIMTOFL
 70
     0
  9
$DIMTVP
 40
0.0
  9
$DIMTIX
 70
     0
  9
$DIMSOXD
 70
     0
  9
$DIMSAH
 70
     0
  9
$DIMBLK1
  1

  9
$DIMBLK2
  1

  9
$DIMSTYLE
  2
STANDARD
  9
$DIMCLRD
 70
     0
  9
$DIMCLRE
 70
     0
  9
$DIMCLRT
 70
     0
  9
$DIMTFAC
 40
1.0
  9
$DIMGAP
 40
0.09
  9
$DIMJUST
 70
     0
  9
$DIMSD1
 70
     0
  9
$DIMSD2
 70
     0
  9
$DIMTOLJ
 70
     1
  9
$DIMTZIN
 70
     0
  9
$DIMALTZ
 70
     0
  9
$DIMALTTZ
 70
     0
  9
$DIMUPT
 70
     0
  9
$DIMDEC
 70
     4
  9
$DIMTDEC
 70
     4
  9
$DIMALTU
 70
     2
  9
$DIMALTTD
 70
     2
  9
$DIMTXSTY
  7
STANDARD
  9
$DIMAUNIT
 70
     0
  9
$DIMADEC
 70
     0
  9
$DIMALTRND
 40
0.0
  9
$DIMAZIN
 70
     0
  9
$DIMDSEP
 70
    46
  9
$DIMATFIT
 70
     3
  9
$DIMFRAC
 70
     0
  9
$DIMLDRBLK
  1

  9
$DIMLUNIT
 70
     2
  9
$DIMLWD
 70
    -2
  9
$DIMLWE
 70
    -2
  9
$DIMTMOVE
 70
     2
  9
$DIMFXL
 40
1.0
  9
$DIMFXLON
 70
     0
  9
$DIMJOGANG
 40
0.7853981633974483
  9
$DIMTFILL
 70
     0
  9
$DIMTFILLCLR
 70
     0
  9
$DIMARCSYM
 70
     0
  9
$DIMLTYPE
  6

  9
$DIMLTEX1
  6

  9
$DIMLTEX2
  6

  9
$LUNITS
 70
     2
  9
$LUPREC
 70
     4
  9
$SKETCHINC
 40
0.1
  9
$FILLETRAD
 40
0.5
  9
$AUNITS
 70
     0
  9
$AUPREC
 70
     0
  9
$MENU
  1
.
  9
$ELEVATION
 40
0.0
  9
$PELEVATION
 40
0.0
  9
$THICKNESS
 40
0.0
  9
$LIMCHECK
 70
     0
  9
$CHAMFERA
 40
0.5
  9
$CHAMFERB
 40
0.5
  9
$CHAMFERC
 40
1.0
  9
$CHAMFERD
 40
0.0
  9
$SKPOLY
 70
     0
  9
$TDCREATE
 40
2456058.668680556
  9
$TDUCREATE
 40
2456058.585347222
  9
$TDUPDATE
 40
2456058.668680556
  9
$TDUUPDATE
 40
2456058.585347222
  9
$TDINDWG
 40
0.0
  9
$TDUSRTIMER
 40
0.0
  9
$USRTIMER
 70
     1
  9
$ANGBASE
 50
0.0
  9
$ANGDIR
 70
     0
  9
$PDMODE
 70
     0
  9
$PDSIZE
 40
0.0
  9
$PLINEWID
 40
0.0
  9
$SPLFRAME
 70
     0
  9
$SPLINETYPE
 70
     6
  9
$SPLINESEGS
 70
     8
  9
$HANDSEED
  5
92
  9
$SURFTAB1
 70
     6
  9
$SURFTAB2
 70
     6
  9
$SURFTYPE
 70
     6
  9
$SURFU
 70
     6
  9
$SURFV
 70
     6
  9
$UCSBASE
  2

  9
$UCSNAME
  2

  9
$UCSORG
 10
0.0
 20
0.0
 30
0.0
  9
$UCSXDIR
 10
1.0
 20
0.0
 30
0.0
  9
$UCSYDIR
 10
0.0
 20
1.0
 30
0.0
  9
$UCSORTHOREF
  2

  9
$UCSORTHOVIEW
 70
     0
  9
$UCSORGTOP
 10
0.0
 20
0.0
 30
0.0
  9
$UCSORGBOTTOM
 10
0.0
 20
0.0
 30
0.0
  9
$UCSORGLEFT
 10
0.0
 20
0.0
 30
0.0
  9
$UCSORGRIGHT
 10
0.0
 20
0.0
 30
0.0
  9
$UCSORGFRONT
 10
0.0
 20
0.0
 30
0.0
  9
$UCSORGBACK
 10
0.0
 20
0.0
 30
0.0
  9
$PUCSBASE
  2

  9
$PUCSNAME
  2

  9
$PUCSORG
 10
0.0
 20
0.0
 30
0.0
  9
$PUCSXDIR
 10
1.0
 20
0.0
 30
0.0
  9
$PUCSYDIR
 10
0.0
 20
1.0
 30
0.0
  9
$PUCSORTHOREF
  2

  9
$PUCSORTHOVIEW
 70
     0
  9
$PUCSORGTOP
 10
0.0
 20
0.0
 30
0.0
  9
$PUCSORGBOTTOM
 10
0.0
 20
0.0
 30
0.0
  9
$PUCSORGLEFT
 10
0.0
 20
0.0
 30
0.0
  9
$PUCSORGRIGHT
 10
0.0
 20
0.0
 30
0.0
  9
$PUCSORGFRONT
 10
0.0
 20
0.0
 30
0.0
  9
$PUCSORGBACK
 10
0.0
 20
0.0
 30
0.0
  9
$USERI1
 70
     0
  9
$USERI2
 70
     0
  9
$USERI3
 70
     0
  9
$USERI4
 70
     0
  9
$USERI5
 70
     0
  9
$USERR1
 40
0.0
  9
$USERR2
 40
0.0
  9
$USERR3
 40
0.0
  9
$USERR4
 40
0.0
  9
$USERR5
 40
0.0
  9
$WORLDVIEW
 70
     1
  9
$SHADEDGE
 70
     3
  9
$SHADEDIF
 70
    70
  9
$TILEMODE
 70
     1
  9
$MAXACTVP
 70
    48
  9
$PINSBASE
 10
0.0
 20
0.0
 30
0.0
  9
$PLIMCHECK
 70
     0
  9
$PEXTMIN
 10
1.000000000000000E+20
 20
1.000000000000000E+20
 30
1.000000000000000E+20
  9
$PEXTMAX
 10
-1.000000000000000E+20
 20
-1.000000000000000E+20
 30
-1.000000000000000E+20
  9
$PLIMMIN
 10
0.0
 20
0.0
  9
$PLIMMAX
 10
12.0
 20
9.0
  9
$UNITMODE
 70
     0
  9
$VISRETAIN
 70
     1
  9
$PLINEGEN
 70
     0
  9
$PSLTSCALE
 70
     1
  9
$TREEDEPTH
 70
  3020
  9
$CMLSTYLE
  2
STANDARD
  9
$CMLJUST
 70
     0
  9
$CMLSCALE
 40
1.0
  9
$PROXYGRAPHICS
 70
     1
  9
$MEASUREMENT
 70
     0
  9
$CELWEIGHT
370
    -1
  9
$ENDCAPS
280
     0
  9
$JOINSTYLE
280
     0
  9
$LWDISPLAY
290
     0
  9
$INSUNITS
 70
     0
  9
$HYPERLINKBASE
  1

  9
$STYLESHEET
  1

  9
$XEDIT
290
     1
  9
$CEPSNTYPE
380
     0
  9
$PSTYLEMODE
290
     1
  9
$FINGERPRINTGUID
  2
{25575F7E-7537-44D1-959D-703E64AE1958}
  9
$VERSIONGUID
  2
{FAEB1C32-E019-11D5-929B-00C0DF256EC4}
  9
$EXTNAMES
290
     1
  9
$PSVPSCALE
 40
0.0
  9
$OLESTARTUP
290
     0
  9
$SORTENTS
280
   127
  9
$INDEXCTL
280
     0
  9
$HIDETEXT
280
     1
  9
$XCLIPFRAME
290
     0
  9
$HALOGAP
280
     0
  9
$OBSCOLOR
 70
   257
  9
$OBSLTYPE
280
     0
  9
$INTERSECTIONDISPLAY
280
     0
  9
$INTERSECTIONCOLOR
 70
   257
  9
$DIMASSOC
280
     2
  9
$PROJECTNAME
  1

  9
$CAMERADISPLAY
290
     0
  9
$LENSLENGTH
 40
50.0
  9
$CAMERAHEIGHT
 40
0.0
  9
$STEPSPERSEC
 40
2.0
  9
$STEPSIZE
 40
6.0
  9
$3DDWFPREC
 40
2.0
  9
$PSOLWIDTH
 40
0.25
  9
$PSOLHEIGHT
 40
4.0
  9
$LOFTANG1
 40
1.570796326794897
  9
$LOFTANG2
 40
1.570796326794897
  9
$LOFTMAG1
 40
0.0
  9
$LOFTMAG2
 40
0.0
  9
$LOFTPARAM
 70
     7
  9
$LOFTNORMALS
280
     1
  9
$LATITUDE
 40
37.795
  9
$LONGITUDE
 40
-122.394
  9
$NORTHDIRECTION
 40
0.0
  9
$TIMEZONE
 70
 -8000
  9
$LIGHTGLYPHDISPLAY
280
     1
  9
$TILEMODELIGHTSYNCH
280
     1
  9
$SOLIDHIST
280
     1
  9
$SHOWHIST
280
     1
  9
$DWFFRAME
280
     2
  9
$DGNFRAME
280
     2
  9
$REALWORLDSCALE
290
     1
  9
$INTERFERECOLOR
 62
   256
  9
$CSHADOW
280
     0
  9
$SHADOWPLANELOCATION
 40
0.0
  0
ENDSEC
  0
SECTION
  2
CLASSES
  0
CLASS
  1
SCALE
  2
AcDbScale
  3
ObjectDBX Classes
 90
     1153
 91
        4
280
     0
281
     0
  0
CLASS
  1
DICTIONARYVAR
  2
AcDbDictionaryVar
  3
ObjectDBX Classes
 90
        0
 91
        4
280
     0
281
     0
  0
ENDSEC
  0
SECTION
  2
TABLES
  0
TABLE
  2
VPORT
  5
8
330
0
100
AcDbSymbolTable
 70
     1
  0
VPORT
  5
1E
330
8
100
AcDbSymbolTableRecord
100
AcDbViewportTableRecord
  2
*ACTIVE
 70
     0
 10
0.0
 20
0.0
 11
1.0
 21
1.0
 12
0.0
 22
0.0
 13
0.0
 23
0.0
 14
0.1
 24
0.1
 15
0.1
 25
0.1
 16
0.0
 26
0.0
 36
1.0
 17
0.0
 27
0.0
 37
0.0
 40
9.8156
 41
1.4841
 42
50.0
 43
0.0
 44
0.0
 50
0.0
 51
0.0
 71
     0
 72
   100
 73
     1
 74
     1
 75
     0
 76
     0
 77
     0
 78
     0
281
     0
 65
     1
110
0.0
120
0.0
130
0.0
111
1.0
121
0.0
131
0.0
112
0.0
122
1.0
132
0.0
 79
     0
146
0.0
 60
     3
 61
     5
292
     1
282
     1
141
0.0
142
0.0
 63
   250
  0
ENDTAB
  0
TABLE
  2
LTYPE
  5
5
330
0
100
AcDbSymbolTable
 70
     1
  0
LTYPE
  5
12
330
5
100
AcDbSymbolTableRecord
100
AcDbLinetypeTableRecord
  2
BYBLOCK
 70
     0
  3

 72
    65
 73
     0
 40
0.0
  0
LTYPE
  5
13
330
5
100
AcDbSymbolTableRecord
100
AcDbLinetypeTableRecord
  2
BYLAYER
 70
     0
  3

 72
    65
 73
     0
 40
0.0
  0
LTYPE
  5
14
330
5
100
AcDbSymbolTableRecord
100
AcDbLinetypeTableRecord
  2
CONTINUOUS
 70
     0
  3
Solid line
 72
    65
 73
     0
 40
0.0
  0
ENDTAB
  0
TABLE
  2
LAYER
  5
2
330
0
100
AcDbSymbolTable
 70
     3
  0
LAYER
  5
E
330
2
100
AcDbSymbolTableRecord
100
AcDbLayerTableRecord
  2
0
 70
     0
 62
     7
  6
CONTINUOUS
370
    -3
390
0
347
0
  0
LAYER
  5
20
330
2
100
AcDbSymbolTableRecord
100
AcDbLayerTableRecord
  2
Rahmen und Schriftfeld
 70
     0
 62
     7
  6
CONTINUOUS
370
    -3
390
0
347
0
  0
LAYER
  5
21
330
2
100
AcDbSymbolTableRecord
100
AcDbLayerTableRecord
  2
Gehause
 70
     0
 62
     7
  6
CONTINUOUS
370
    -3
390
0
347
0
  0
ENDTAB
  0
TABLE
  2
STYLE
  5
3
330
0
100
AcDbSymbolTable
 70
     2
  0
STYLE
  5
F
330
3
100
AcDbSymbolTableRecord
100
AcDbTextStyleTableRecord
  2
STANDARD
 70
     0
 40
0.0
 41
1.0
 50
0.0
 71
     0
 42
0.2
  3
txt
  4

  0
STYLE
  5
22
330
3
100
AcDbSymbolTableRecord
100
AcDbTextStyleTableRecord
  2
Arial
 70
     0
 40
0.0
 41
1.0
 50
0.0
 71
     0
 42
0.2
  3
txt
  4

  0
ENDTAB
  0
TABLE
  2
VIEW
  5
6
330
0
100
AcDbSymbolTable
 70
     0
  0
ENDTAB
  0
TABLE
  2
UCS
  5
7
330
0
100
AcDbSymbolTable
 70
     0
  0
ENDTAB
  0
TABLE
  2
APPID
  5
9
330
0
100
AcDbSymbolTable
 70
     1
  0
APPID
  5
10
330
9
100
AcDbSymbolTableRecord
100
AcDbRegAppTableRecord
  2
ACAD
 70
     0
  0
ENDTAB
  0
TABLE
  2
DIMSTYLE
  5
A
330
0
100
AcDbSymbolTable
 70
     1
100
AcDbDimStyleTable
  0
DIMSTYLE
105
1D
330
A
100
AcDbSymbolTableRecord
100
AcDbDimStyleTableRecord
  2
STANDARD
 70
     0
340
F
  0
ENDTAB
  0
TABLE
  2
BLOCK_RECORD
  5
1
330
0
100
AcDbSymbolTable
 70
     0
  0
BLOCK_RECORD
  5
18
330
1
100
AcDbSymbolTableRecord
100
AcDbBlockTableRecord
  2
*MODEL_SPACE
340
69
 70
     0
280
     1
281
     0
  0
BLOCK_RECORD
  5
15
330
1
100
AcDbSymbolTableRecord
100
AcDbBlockTableRecord
  2
*PAPER_SPACE
340
6A
 70
     0
280
     1
281
     0
  0
ENDTAB
  0
ENDSEC
  0
SECTION
  2
BLOCKS
  0
BLOCK
  5
19
330
18
100
AcDbEntity
  8
0
100
AcDbBlockBegin
  2
*MODEL_SPACE
 70
     0
 10
0.0
 20
0.0
 30
0.0
  3
*MODEL_SPACE
  1
     0
  0
ENDBLK
  5
1A
330
18
100
AcDbEntity
  8
0
100
AcDbBlockEnd
  0
BLOCK
  5
16
330
15
100
AcDbEntity
 67
     1
  8
0
100
AcDbBlockBegin
  2
*PAPER_SPACE
 70
     0
 10
0.0
 20
0.0
 30
0.0
  3
*PAPER_SPACE
  1
     0
  0
ENDBLK
  5
17
330
15
100
AcDbEntity
 67
     1
  8
0
100
AcDbBlockEnd
  0
ENDSEC
  0
SECTION
  2
ENTITIES
  0
LINE
  5
23
330
18
100
AcDbEntity
  8
Rahmen und Schriftfeld
100
AcDbLine
 10
-134.2057
 20
-95.5803
 30
0.0
 11
-134.2057
 21
95.5246
 31
0.0
  0
LINE
  5
24
330
18
100
AcDbEntity
  8
Rahmen und Schriftfeld
100
AcDbLine
 10
132.0714
 20
-95.5803
 30
0.0
 11
132.0714
 21
95.5246
 31
0.0
  0
LINE
  5
25
330
18
100
AcDbEntity
  8
Rahmen und Schriftfeld
100
AcDbLine
 10
-134.2057
 20
95.5246
 30
0.0
 11
132.0714
 21
95.5246
 31
0.0
  0
LINE
  5
26
330
18
100
AcDbEntity
  8
Rahmen und Schriftfeld
100
AcDbLine
 10
52.6598
 20
-72.174
 30
0.0
 11
80.5249
 21
-72.174
 31
0.0
  0
LINE
  5
27
330
18
100
AcDbEntity
  8
Rahmen und Schriftfeld
100
AcDbLine
 10
52.6598
 20
-77.7852
 30
0.0
 11
80.5249
 21
-77.7852
 31
0.0
  0
LINE
  5
28
330
18
100
AcDbEntity
  8
Rahmen und Schriftfeld
100
AcDbLine
 10
52.6598
 20
-83.3964
 30
0.0
 11
80.5249
 21
-83.3964
 31
0.0
  0
LINE
  5
29
330
18
100
AcDbEntity
  8
Rahmen und Schriftfeld
100
AcDbLine
 10
52.6598
 20
-89.0076
 30
0.0
 11
80.5249
 21
-89.0076
 31
0.0
  0
TEXT
  5
2A
330
18
100
AcDbEntity
  8
Rahmen und Schriftfeld
100
AcDbText
 10
54.4014
 20
-91.8587
 30
0.0
 40
1.6042
  1
Änd.-
  7
Arial
100
AcDbText
  0
TEXT
  5
2B
330
18
100
AcDbEntity
  8
Rahmen und Schriftfeld
100
AcDbText
 10
54.4014
 20
-94.3074
 30
0.0
 40
1.6042
  1
index
  7
Arial
100
AcDbText
  0
LINE
  5
2C
330
18
100
AcDbEntity
  8
Rahmen und Schriftfeld
100
AcDbLine
 10
52.6598
 20
-67.174
 30
0.0
 11
80.5249
 21
-67.174
 31
0.0
  0
LINE
  5
2D
330
18
100
AcDbEntity
  8
Rahmen und Schriftfeld
100
AcDbLine
 10
52.6597
 20
-62.174
 30
0.0
 11
80.5248
 21
-62.174
 31
0.0
  0
LINE
  5
2E
330
18
100
AcDbEntity
  8
Rahmen und Schriftfeld
100
AcDbLine
 10
52.6596
 20
-57.174
 30
0.0
 11
80.5247
 21
-57.174
 31
0.0
  0
LINE
  5
2F
330
18
100
AcDbEntity
  8
Rahmen und Schriftfeld
100
AcDbLine
 10
52.6595
 20
-52.174
 30
0.0
 11
80.5246
 21
-52.174
 31
0.0
  0
LINE
  5
30
330
18
100
AcDbEntity
  8
Rahmen und Schriftfeld
100
AcDbLine
 10
62.4843
 20
-95.5804
 30
0.0
 11
62.4843
 21
-37.174
 31
0.0
  0
TEXT
  5
31
330
18
100
AcDbEntity
  8
Rahmen und Schriftfeld
100
AcDbText
 10
64.2264
 20
-91.8588
 30
0.0
 40
1.6042
  1
Änderungs-
  7
Arial
100
AcDbText
  0
TEXT
  5
32
330
18
100
AcDbEntity
  8
Rahmen und Schriftfeld
100
AcDbText
 10
64.2264
 20
-94.3075
 30
0.0
 40
1.6042
  1
datum
  7
Arial
100
AcDbText
  0
LINE
  5
33
330
18
100
AcDbEntity
  8
Rahmen und Schriftfeld
100
AcDbLine
 10
80.5243
 20
-49.2607
 30
0.0
 11
132.0712
 21
-49.2607
 31
0.0
  0
TEXT
  5
34
330
18
100
AcDbEntity
  8
Rahmen und Schriftfeld
100
AcDbText
 10
80.9796
 20
-58.861
 30
0.0
 40
2.1389
  1
gezeichnet:
  7
Arial
100
AcDbText
  0
TEXT
  5
35
330
18
100
AcDbEntity
  8
Rahmen und Schriftfeld
100
AcDbText
 10
80.9796
 20
-64.7485
 30
0.0
 40
2.1389
  1
geprüft:
  7
Arial
100
AcDbText
  0
TEXT
  5
36
330
18
100
AcDbEntity
  8
Rahmen und Schriftfeld
100
AcDbText
 10
80.9796
 20
-70.636
 30
0.0
 40
2.1389
  1
Dateiname:
  7
Arial
100
AcDbText
  0
LINE
  5
37
330
18
100
AcDbEntity
  8
Rahmen und Schriftfeld
100
AcDbLine
 10
96.6922
 20
-72.5803
 30
0.0
 11
96.6922
 21
-55.003
 31
0.0
  0
LINE
  5
38
330
18
100
AcDbEntity
  8
Rahmen und Schriftfeld
100
AcDbLine
 10
113.6322
 20
-66.6928
 30
0.0
 11
113.6322
 21
-55.0031
 31
0.0
  0
LINE
  5
39
330
18
100
AcDbEntity
  8
Rahmen und Schriftfeld
100
AcDbLine
 10
80.5242
 20
-54.9177
 30
0.0
 11
132.0712
 21
-54.9177
 31
0.0
  0
LINE
  5
3A
330
18
100
AcDbEntity
  8
Rahmen und Schriftfeld
100
AcDbLine
 10
80.5243
 20
-60.8053
 30
0.0
 11
132.0712
 21
-60.8053
 31
0.0
  0
LINE
  5
3B
330
18
100
AcDbEntity
  8
Rahmen und Schriftfeld
100
AcDbLine
 10
80.5243
 20
-66.6928
 30
0.0
 11
132.0712
 21
-66.6928
 31
0.0
  0
TEXT
  5
3C
330
18
100
AcDbEntity
  8
Rahmen und Schriftfeld
100
AcDbText
 10
80.9795
 20
-52.9734
 30
0.0
 40
2.1389
  1
Maßstab:
  7
Arial
100
AcDbText
  0
TEXT
  5
3D
330
18
100
AcDbEntity
  8
Rahmen und Schriftfeld
100
AcDbText
 10
95.1474
 20
-53.0587
 30
0.0
 40
2.6737
  1
1:1
  7
Arial
100
AcDbText
  0
TEXT
  5
3E
330
18
100
AcDbEntity
  8
Rahmen und Schriftfeld
100
AcDbText
 10
101.1385
 20
-52.9734
 30
0.0
 40
2.1389
  1
Werkstoff:
  7
Arial
100
AcDbText
  0
LINE
  5
3F
330
18
100
AcDbEntity
  8
Rahmen und Schriftfeld
100
AcDbLine
 10
100.6833
 20
-54.9177
 30
0.0
 11
100.6833
 21
-49.2607
 31
0.0
  0
LINE
  5
40
330
18
100
AcDbEntity
  8
Rahmen und Schriftfeld
100
AcDbLine
 10
-134.2057
 20
-95.5803
 30
0.0
 11
132.0712
 21
-95.5803
 31
0.0
  0
LINE
  5
41
330
18
100
AcDbEntity
  8
Rahmen und Schriftfeld
100
AcDbLine
 10
132.0712
 20
-95.5803
 30
0.0
 11
132.0712
 21
-37.174
 31
0.0
  0
LINE
  5
42
330
18
100
AcDbEntity
  8
Rahmen und Schriftfeld
100
AcDbLine
 10
52.6594
 20
-47.174
 30
0.0
 11
80.5245
 21
-47.174
 31
0.0
  0
LINE
  5
43
330
18
100
AcDbEntity
  8
Rahmen und Schriftfeld
100
AcDbLine
 10
52.6593
 20
-42.174
 30
0.0
 11
80.5244
 21
-42.174
 31
0.0
  0
LINE
  5
44
330
18
100
AcDbEntity
  8
Rahmen und Schriftfeld
100
AcDbLine
 10
52.6593
 20
-95.5803
 30
0.0
 11
80.5243
 21
-95.5803
 31
0.0
  0
LINE
  5
45
330
18
100
AcDbEntity
  8
Rahmen und Schriftfeld
100
AcDbLine
 10
80.4205
 20
-95.5803
 30
0.0
 11
80.5243
 21
-95.5803
 31
0.0
  0
LINE
  5
46
330
18
100
AcDbEntity
  8
Rahmen und Schriftfeld
100
AcDbLine
 10
80.4205
 20
-85.5817
 30
0.0
 11
131.9674
 21
-85.5817
 31
0.0
  0
LINE
  5
47
330
18
100
AcDbEntity
  8
Rahmen und Schriftfeld
100
AcDbLine
 10
80.5243
 20
-72.5803
 30
0.0
 11
132.0712
 21
-72.5803
 31
0.0
  0
LINE
  5
48
330
18
100
AcDbEntity
  8
Rahmen und Schriftfeld
100
AcDbLine
 10
121.87
 20
-90.551
 30
0.0
 11
132.0712
 21
-90.551
 31
0.0
  0
LINE
  5
49
330
18
100
AcDbEntity
  8
Rahmen und Schriftfeld
100
AcDbLine
 10
121.87
 20
-95.5803
 30
0.0
 11
121.87
 21
-85.5644
 31
0.0
  0
TEXT
  5
4A
330
18
100
AcDbEntity
  8
Rahmen und Schriftfeld
100
AcDbText
 10
122.487
 20
-92.3505
 30
0.0
 40
1.3368
  1
von
  7
Arial
100
AcDbText
  0
TEXT
  5
4B
330
18
100
AcDbEntity
  8
Rahmen und Schriftfeld
100
AcDbText
 10
122.487
 20
-87.3639
 30
0.0
 40
1.3368
  1
Blatt
  7
Arial
100
AcDbText
  0
LINE
  5
4C
330
18
100
AcDbEntity
  8
Rahmen und Schriftfeld
100
AcDbLine
 10
80.5243
 20
-37.1726
 30
0.0
 11
132.0712
 21
-37.1726
 31
0.0
  0
LINE
  5
4D
330
18
100
AcDbEntity
  8
Rahmen und Schriftfeld
100
AcDbLine
 10
80.5243
 20
-95.5803
 30
0.0
 11
80.5243
 21
-37.1726
 31
0.0
  0
LINE
  5
4E
330
18
100
AcDbEntity
  8
Rahmen und Schriftfeld
100
AcDbLine
 10
52.6593
 20
-37.1726
 30
0.0
 11
80.5243
 21
-37.1726
 31
0.0
  0
LINE
  5
4F
330
18
100
AcDbEntity
  8
Rahmen und Schriftfeld
100
AcDbLine
 10
52.6593
 20
-95.5803
 30
0.0
 11
52.6593
 21
-37.1726
 31
0.0
  0
TEXT
  5
50
330
18
100
AcDbEntity
  8
Rahmen und Schriftfeld
100
AcDbText
 10
128.5861
 20
-89.56
 30
0.0
 40
3.2084
  1
1
  7
Arial
100
AcDbText
  0
TEXT
  5
51
330
18
100
AcDbEntity
  8
Rahmen und Schriftfeld
100
AcDbText
 10
128.5861
 20
-94.5893
 30
0.0
 40
3.2084
  1
1
  7
Arial
100
AcDbText
  0
LINE
  5
52
330
18
100
AcDbEntity
  8
Gehause
100
AcDbLine
 10
-61.3226
 20
51.2414
 30
0.0
 11
-8.9709
 21
51.2414
 31
0.0
  0
LINE
  5
53
330
18
100
AcDbEntity
  8
Gehause
100
AcDbLine
 10
-61.3226
 20
8.2414
 30
0.0
 11
-8.9709
 21
8.2414
 31
0.0
  0
ARC
  5
54
330
18
100
AcDbEntity
  8
Gehause
100
AcDbCircle
 10
-1.6224
 20
49.7414
 30
0.0
 40
4.5
100
AcDbArc
 50
191.5357
 51
254.5338
  0
ARC
  5
55
330
18
100
AcDbEntity
  8
Gehause
100
AcDbCircle
 10
-3.6225
 20
42.5129
 30
0.0
 40
3.0
100
AcDbArc
 50
0.0
 51
74.5342
  0
ARC
  5
56
330
18
100
AcDbEntity
  8
Gehause
100
AcDbCircle
 10
-1.6224
 20
9.7414
 30
0.0
 40
4.5
100
AcDbArc
 50
105.4662
 51
168.4643
  0
ARC
  5
57
330
18
100
AcDbEntity
  8
Gehause
100
AcDbCircle
 10
-3.6225
 20
16.9699
 30
0.0
 40
3.0
100
AcDbArc
 50
285.4658
 51
0.0
  0
LINE
  5
58
330
18
100
AcDbEntity
  8
Gehause
100
AcDbLine
 10
-84.6224
 20
15.4945
 30
0.0
 11
-84.6224
 21
43.9988
 31
0.0
  0
LINE
  5
59
330
18
100
AcDbEntity
  8
Gehause
100
AcDbLine
 10
-83.7437
 20
46.1201
 30
0.0
 11
-79.498
 21
50.3655
 31
0.0
  0
ARC
  5
5A
330
18
100
AcDbEntity
  8
Gehause
100
AcDbCircle
 10
-77.3768
 20
48.2441
 30
0.0
 40
3.0
100
AcDbArc
 50
89.9924
 51
134.9973
  0
ARC
  5
5B
330
18
100
AcDbEntity
  8
Gehause
100
AcDbCircle
 10
-81.6225
 20
43.9987
 30
0.0
 40
3.0
100
AcDbArc
 50
134.9973
 51
179.9981
  0
ARC
  5
5C
330
18
100
AcDbEntity
  8
Gehause
100
AcDbCircle
 10
-77.3768
 20
11.2387
 30
0.0
 40
3.0
100
AcDbArc
 50
225.0027
 51
270.0076
  0
LINE
  5
5D
330
18
100
AcDbEntity
  8
Gehause
100
AcDbLine
 10
-83.7437
 20
13.3627
 30
0.0
 11
-79.498
 21
9.1173
 31
0.0
  0
ARC
  5
5E
330
18
100
AcDbEntity
  8
Gehause
100
AcDbCircle
 10
-81.6225
 20
15.4841
 30
0.0
 40
3.0
100
AcDbArc
 50
180.0019
 51
225.0027
  0
LINE
  5
5F
330
18
100
AcDbEntity
  8
Gehause
100
AcDbLine
 10
-77.5041
 20
51.2414
 30
0.0
 11
-72.3225
 21
51.2414
 31
0.0
  0
LINE
  5
60
330
18
100
AcDbEntity
  8
Gehause
100
AcDbLine
 10
-77.5041
 20
8.2414
 30
0.0
 11
-72.3225
 21
8.2414
 31
0.0
  0
LINE
  5
61
330
18
100
AcDbEntity
  8
Gehause
100
AcDbLine
 10
-72.3225
 20
8.2414
 30
0.0
 11
-61.3226
 21
8.2414
 31
0.0
  0
LINE
  5
62
330
18
100
AcDbEntity
  8
Gehause
100
AcDbLine
 10
-72.3225
 20
51.2414
 30
0.0
 11
-61.3226
 21
51.2414
 31
0.0
  0
ARC
  5
63
330
18
100
AcDbEntity
  8
Gehause
100
AcDbCircle
 10
-8.9709
 20
48.2414
 30
0.0
 40
3.0
100
AcDbArc
 50
11.5388
 51
90.0
  0
ARC
  5
64
330
18
100
AcDbEntity
  8
Gehause
100
AcDbCircle
 10
-8.9709
 20
11.2414
 30
0.0
 40
3.0
100
AcDbArc
 50
270.0
 51
348.4612
  0
LINE
  5
65
330
18
100
AcDbEntity
  8
Gehause
100
AcDbLine
 10
-0.6224
 20
36.1841
 30
0.0
 11
-0.6224
 21
42.5129
 31
0.0
  0
LINE
  5
66
330
18
100
AcDbEntity
  8
Gehause
100
AcDbLine
 10
-0.6225
 20
16.9699
 30
0.0
 11
-0.6225
 21
23.2983
 31
0.0
  0
LINE
  5
67
330
18
100
AcDbEntity
  8
Gehause
100
AcDbLine
 10
-0.6225
 20
23.2983
 30
0.0
 11
-0.6225
 21
36.1841
 31
0.0
  0
ENDSEC
  0
SECTION
  2
OBJECTS
  0
DICTIONARY
  5
C
330
0
100
AcDbDictionary
281
     1
  3
ACAD_GROUP
350
D
  3
ACAD_LAYOUT
350
68
  3
ACAD_MLEADERSTYLE
350
91
  3
ACAD_MLINESTYLE
350
1B
  3
ACAD_SCALELIST
350
6B
  3
ACAD_TABLESTYLE
350
90
  3
AcDbVariableDictionary
350
8D
  0
DICTIONARY
  5
D
102
{ACAD_REACTORS
330
C
102
}
330
C
100
AcDbDictionary
281
     1
  0
DICTIONARY
  5
68
102
{ACAD_REACTORS
330
C
102
}
330
C
100
AcDbDictionary
281
     1
  3
Layout1
350
6A
  3
Model
350
69
  0
DICTIONARY
  5
91
102
{ACAD_REACTORS
330
C
102
}
330
C
100
AcDbDictionary
281
     1
  0
DICTIONARY
  5
1B
102
{ACAD_REACTORS
330
C
102
}
330
C
100
AcDbDictionary
281
     1
  3
STANDARD
350
1C
  0
DICTIONARY
  5
6B
102
{ACAD_REACTORS
330
C
102
}
330
C
100
AcDbDictionary
281
     1
  3
A0
350
6C
  3
A1
350
6D
  3
A2
350
6E
  3
A3
350
6F
  3
A4
350
70
  3
A5
350
71
  3
A6
350
72
  3
A7
350
73
  3
A8
350
74
  3
A9
350
75
  3
B0
350
76
  3
B1
350
77
  3
B2
350
78
  3
B3
350
79
  3
B4
350
7A
  3
B5
350
7B
  3
B6
350
7C
  3
B7
350
7D
  3
B8
350
7E
  3
B9
350
7F
  3
C0
350
80
  3
C1
350
81
  3
C2
350
82
  3
C3
350
83
  3
C4
350
84
  3
C5
350
85
  3
C6
350
86
  3
C7
350
87
  3
C8
350
88
  3
C9
350
89
  3
D0
350
8A
  3
D1
350
8B
  3
D2
350
8C
  0
DICTIONARY
  5
90
102
{ACAD_REACTORS
330
C
102
}
330
C
100
AcDbDictionary
281
     1
  0
DICTIONARY
  5
8D
102
{ACAD_REACTORS
330
C
102
}
330
C
100
AcDbDictionary
281
     1
  3
CANNOSCALE
350
8E
  3
LIGHTINGUNITS
350
8F
  0
LAYOUT
  5
6A
102
{ACAD_REACTORS
330
68
102
}
330
68
100
AcDbPlotSettings
  1

  2
none_device
  4

  6

 40
0.0
 41
0.0
 42
0.0
 43
0.0
 44
0.0
 45
0.0
 46
0.0
 47
0.0
 48
0.0
 49
0.0
140
0.0
141
0.0
142
1.0
143
1.0
 70
   688
 72
     0
 73
     0
 74
     5
  7

 75
    16
 76
     0
 77
     2
 78
   300
147
1.0
148
0.0
149
0.0
100
AcDbLayout
  1
Layout1
 70
     1
 71
     1
 10
0.0
 20
0.0
 11
0.0
 21
0.0
 12
0.0
 22
0.0
 32
0.0
 14
0.0
 24
0.0
 34
0.0
 15
0.0
 25
0.0
 35
0.0
146
0.0
 13
0.0
 23
0.0
 33
0.0
 16
1.0
 26
0.0
 36
0.0
 17
0.0
 27
1.0
 37
0.0
 76
     0
330
15
  0
LAYOUT
  5
69
102
{ACAD_REACTORS
330
68
102
}
330
68
100
AcDbPlotSettings
  1

  2
none_device
  4

  6

 40
0.0
 41
0.0
 42
0.0
 43
0.0
 44
0.0
 45
0.0
 46
0.0
 47
0.0
 48
0.0
 49
0.0
140
0.0
141
0.0
142
1.0
143
1.0
 70
   688
 72
     0
 73
     0
 74
     5
  7

 75
    16
 76
     0
 77
     2
 78
   300
147
1.0
148
0.0
149
0.0
100
AcDbLayout
  1
Model
 70
     1
 71
     0
 10
0.0
 20
0.0
 11
0.0
 21
0.0
 12
0.0
 22
0.0
 32
0.0
 14
0.0
 24
0.0
 34
0.0
 15
0.0
 25
0.0
 35
0.0
146
0.0
 13
0.0
 23
0.0
 33
0.0
 16
1.0
 26
0.0
 36
0.0
 17
0.0
 27
1.0
 37
0.0
 76
     0
330
18
331
1E
  0
MLINESTYLE
  5
1C
102
{ACAD_REACTORS
330
1B
102
}
330
1B
100
AcDbMlineStyle
  2
STANDARD
 70
     0
  3

 62
   256
 51
90.0
 52
90.0
 71
     2
 49
0.5
 62
   256
  6
BYLAYER
 49
-0.5
 62
   256
  6
BYLAYER
  0
SCALE
  5
6C
102
{ACAD_REACTORS
330
6B
102
}
330
6B
100
AcDbScale
 70
     0
300
1:1
140
1.0
141
1.0
290
     1
  0
SCALE
  5
6D
102
{ACAD_REACTORS
330
6B
102
}
330
6B
100
AcDbScale
 70
     0
300
1:2
140
1.0
141
2.0
290
     0
  0
SCALE
  5
6E
102
{ACAD_REACTORS
330
6B
102
}
330
6B
100
AcDbScale
 70
     0
300
1:4
140
1.0
141
4.0
290
     0
  0
SCALE
  5
6F
102
{ACAD_REACTORS
330
6B
102
}
330
6B
100
AcDbScale
 70
     0
300
1:5
140
1.0
141
5.0
290
     0
  0
SCALE
  5
70
102
{ACAD_REACTORS
330
6B
102
}
330
6B
100
AcDbScale
 70
     0
300
1:8
140
1.0
141
8.0
290
     0
  0
SCALE
  5
71
102
{ACAD_REACTORS
330
6B
102
}
330
6B
100
AcDbScale
 70
     0
300
1:10
140
1.0
141
10.0
290
     0
  0
SCALE
  5
72
102
{ACAD_REACTORS
330
6B
102
}
330
6B
100
AcDbScale
 70
     0
300
1:16
140
1.0
141
16.0
290
     0
  0
SCALE
  5
73
102
{ACAD_REACTORS
330
6B
102
}
330
6B
100
AcDbScale
 70
     0
300
1:20
140
1.0
141
20.0
290
     0
  0
SCALE
  5
74
102
{ACAD_REACTORS
330
6B
102
}
330
6B
100
AcDbScale
 70
     0
300
1:30
140
1.0
141
30.0
290
     0
  0
SCALE
  5
75
102
{ACAD_REACTORS
330
6B
102
}
330
6B
100
AcDbScale
 70
     0
300
1:40
140
1.0
141
40.0
290
     0
  0
SCALE
  5
76
102
{ACAD_REACTORS
330
6B
102
}
330
6B
100
AcDbScale
 70
     0
300
1:50
140
1.0
141
50.0
290
     0
  0
SCALE
  5
77
102
{ACAD_REACTORS
330
6B
102
}
330
6B
100
AcDbScale
 70
     0
300
1:100
140
1.0
141
100.0
290
     0
  0
SCALE
  5
78
102
{ACAD_REACTORS
330
6B
102
}
330
6B
100
AcDbScale
 70
     0
300
2:1
140
2.0
141
1.0
290
     0
  0
SCALE
  5
79
102
{ACAD_REACTORS
330
6B
102
}
330
6B
100
AcDbScale
 70
     0
300
4:1
140
4.0
141
1.0
290
     0
  0
SCALE
  5
7A
102
{ACAD_REACTORS
330
6B
102
}
330
6B
100
AcDbScale
 70
     0
300
8:1
140
8.0
141
1.0
290
     0
  0
SCALE
  5
7B
102
{ACAD_REACTORS
330
6B
102
}
330
6B
100
AcDbScale
 70
     0
300
10:1
140
10.0
141
1.0
290
     0
  0
SCALE
  5
7C
102
{ACAD_REACTORS
330
6B
102
}
330
6B
100
AcDbScale
 70
     0
300
100:1
140
100.0
141
1.0
290
     0
  0
SCALE
  5
7D
102
{ACAD_REACTORS
330
6B
102
}
330
6B
100
AcDbScale
 70
     0
300
1/128" = 1'-0"
140
0.0078125
141
12.0
290
     0
  0
SCALE
  5
7E
102
{ACAD_REACTORS
330
6B
102
}
330
6B
100
AcDbScale
 70
     0
300
1/64" = 1'-0"
140
0.015625
141
12.0
290
     0
  0
SCALE
  5
7F
102
{ACAD_REACTORS
330
6B
102
}
330
6B
100
AcDbScale
 70
     0
300
1/32" = 1'-0"
140
0.03125
141
12.0
290
     0
  0
SCALE
  5
80
102
{ACAD_REACTORS
330
6B
102
}
330
6B
100
AcDbScale
 70
     0
300
1/16" = 1'-0"
140
0.0625
141
12.0
290
     0
  0
SCALE
  5
81
102
{ACAD_REACTORS
330
6B
102
}
330
6B
100
AcDbScale
 70
     0
300
3/32" = 1'-0"
140
0.09375
141
12.0
290
     0
  0
SCALE
  5
82
102
{ACAD_REACTORS
330
6B
102
}
330
6B
100
AcDbScale
 70
     0
300
1/8" = 1'-0"
140
0.125
141
12.0
290
     0
  0
SCALE
  5
83
102
{ACAD_REACTORS
330
6B
102
}
330
6B
100
AcDbScale
 70
     0
300
3/16" = 1'-0"
140
0.1875
141
12.0
290
     0
  0
SCALE
  5
84
102
{ACAD_REACTORS
330
6B
102
}
330
6B
100
AcDbScale
 70
     0
300
1/4" = 1'-0"
140
0.25
141
12.0
290
     0
  0
SCALE
  5
85
102
{ACAD_REACTORS
330
6B
102
}
330
6B
100
AcDbScale
 70
     0
300
3/8" = 1'-0"
140
0.375
141
12.0
290
     0
  0
SCALE
  5
86
102
{ACAD_REACTORS
330
6B
102
}
330
6B
100
AcDbScale
 70
     0
300
1/2" = 1'-0"
140
0.5
141
12.0
290
     0
  0
SCALE
  5
87
102
{ACAD_REACTORS
330
6B
102
}
330
6B
100
AcDbScale
 70
     0
300
3/4" = 1'-0"
140
0.75
141
12.0
290
     0
  0
SCALE
  5
88
102
{ACAD_REACTORS
330
6B
102
}
330
6B
100
AcDbScale
 70
     0
300
1" = 1'-0"
140
1.0
141
12.0
290
     0
  0
SCALE
  5
89
102
{ACAD_REACTORS
330
6B
102
}
330
6B
100
AcDbScale
 70
     0
300
1-1/2" = 1'-0"
140
1.5
141
12.0
290
     0
  0
SCALE
  5
8A
102
{ACAD_REACTORS
330
6B
102
}
330
6B
100
AcDbScale
 70
     0
300
3" = 1'-0"
140
3.0
141
12.0
290
     0
  0
SCALE
  5
8B
102
{ACAD_REACTORS
330
6B
102
}
330
6B
100
AcDbScale
 70
     0
300
6" = 1'-0"
140
6.0
141
12.0
290
     0
  0
SCALE
  5
8C
102
{ACAD_REACTORS
330
6B
102
}
330
6B
100
AcDbScale
 70
     0
300
1'-0" = 1'-0"
140
12.0
141
12.0
290
     0
  0
DICTIONARYVAR
  5
8E
102
{ACAD_REACTORS
330
8D
102
}
330
8D
100
DictionaryVariables
280
     0
  1
1:1
  0
DICTIONARYVAR
  5
8F
102
{ACAD_REACTORS
330
8D
102
}
330
8D
100
DictionaryVariables
280
     0
  1
0
  0
ENDSEC
  0
EOF
